Sound will begin in 5 seconds

Bayou Boogie

01234567891011121314151617181920212223
E
B
G
D
A
E
B
0 1 2 3 4 5 6 7 8 9 10 11 12 13 14 15 16 17 18 19 20 21 22 23
Song Science #1: How Pros Use 6 Chords to Write Hit Songs
(/) Slide Up  (\) Slide Down  (h) Hammer On  (p) Pull Off  (b) Bend (r) Release (v) Vibrato

Stave 1:

E|--------3--------------------3--------------|--------5-----3--------------5-----3--------
B|--------------------------------------------|-----------5-----3--5-----------5-----3--5--
G|--4--5-----4--5-----2--4--5-----4--5-----2--|--4--5-----------------4--5-----------------
D|-----------------2--------------------2-----|--------------------------------------------
A|--------------------------------------------|--------------------------------------------
E|--------------------------------------------|--------------------------------------------

Stave 2:

E|-----------------------------------3-----|--------------------------------------
B|--6--5--3--------3--5--6--5--3-----------|--------------------------------------
G|-----------5--2-----------------5-----5--|-----4--5-----2--4--5-----4--5-----2--
D|-----------------------------------------|--2--------2-----------2--------2-----
A|-----------------------------------------|--------------------------------------
E|-----------------------------------------|--------------------------------------

Stave 3:

E|-----------------------------------|-------------------------------------------------
B|-----10------10--------------------|-----10------10--------10------10/13--12--10-----
G|--9------12------9--------------9--|--9------12------9--9------12-----------------9--
D|--------------------12--10--12-----|-------------------------------------------------
A|-----------------------------------|-------------------------------------------------
E|-----------------------------------|-------------------------------------------------

Stave 4:

E|---------------------------------------------------|------------------------------
B|---------------------------------------------------|------------------------------
G|--10--9------------------9--10--9----------12------|----------9--9------9------9--
D|---------12--10------12------------12--10------10--|--10--12--------12-----12-----
A|-----------------12--------------------------------|------------------------------
E|---------------------------------------------------|------------------------------

Stave 5:

E|--------------------------------
B|-----10--12--13--12-------------
G|--9------------------12--9--10--
D|--------------------------------
A|--------------------------------
E|--------------------------------

http://www.guitartabcreator.com
Guitar Tab Creator is intended to store guitar tab created through the tool. It currently does not support in-line text editing. Any text you place in here will be lost. If you need to comment on your tab, please use the "Tab Notes" section located below.