Operation Ivy - Big City Bass TAB

Chords
01234567891011121314151617181920212223
E
B
G
D
A
E
B
0 1 2 3 4 5 6 7 8 9 10 11 12 13 14 15 16 17 18 19 20 21 22 23
(/) Slide Up  (\) Slide Down  (h) Hammer On  (p) Pull Off  (b) Bend (r) Release (v) Vibrato

Stave 1:

G|-3/5---
D|-------
A|-----3-
E|-------

Stave 2:

G|---------------------------------
D|---------------------2-------2---
A|-----3-------5---3-3---3-3-3---3-
E|-1-1---1-3-3---3-----------------

Stave 3:

G|---------------------------------
D|---------------------2---3-2-0---
A|-----3-------5---3-3---3-------3-
E|-1-1---1-3-3---3-----------------

Stave 4:

G|-------------------------------------
D|-------------------------------------
A|-----3-------5---3-3-3-3\15-15-15-15-
E|-1-1---1-3-3---3---------------------

Stave 5:

G|------------------5-5-5-3-3-3-0-----
D|--------------------------------3-0-
A|-------------3----------------------
E|-1-1-1-3-3-3------------------------

Stave 6:

G|---------------------------------------------
D|-------------3-1-3-1---------------5-3-5-3---
A|---------------------3---------------------5-
E|-1-1-1-1-1-1-----------3-3-3-3-3-3-----------

Stave 7:

G|---5-5-0-3---3-3-----------
D|-----------5-----5-5-3-3-0-
A|-3-------------------------
E|---------------------------

Stave 8:

G|-------------------3-3-3---------
D|---------------------------3-3-3-
A|-3-3-3-3-3-3-3-3-1---------------
E|-------------------------1-------

Stave 9:

G|---
D|---
A|-3\
E|---

							http://www.guitartabcreator.com
Instruments
{"strings":[[[3,"/",5,"."],[".",".",".","."],[".",".",".",3],[".",".",".","."]],[[".",".",".",".",".",".",".",".",".",".",".",".",".",".",".","."],[".",".",".",".",".",".",".",".",".",".",2,".",".",".",2,"."],[".",".",3,".",".",".",5,".",3,3,".",3,3,3,".",3],[1,1,".",1,3,3,".",3,".",".",".",".",".",".",".","."]],[[".",".",".",".",".",".",".",".",".",".",".",".",".",".",".","."],[".",".",".",".",".",".",".",".",".",".",2,".",3,2,0,"."],[".",".",3,".",".",".",5,".",3,3,".",3,".",".",".",3],[1,1,".",1,3,3,".",3,".",".",".",".",".",".",".","."]],[[".",".",".",".",".",".",".",".",".",".",".",".",".",".",".",".","."],[".",".",".",".",".",".",".",".",".",".",".",".",".",".",".",".","."],[".",".",3,".",".",".",5,".",3,3,3,3,"\\",15,15,15,15],[1,1,".",1,3,3,".",3,".",".",".",".",".",".",".",".","."]],[[".",".",".",".",".",".",".","_",5,5,5,3,3,3,0,".","."],[".",".",".",".",".",".",".","_",".",".",".",".",".",".",".",3,0],[".",".",".",".",".",".",3,"_",".",".",".",".",".",".",".",".","."],[1,1,1,3,3,3,".","_",".",".",".",".",".",".",".",".","."]],[[".",".",".",".",".",".",".",".",".",".",".",".",".",".",".",".",".",".",".",".",".","."],[".",".",".",".",".",".",3,1,3,1,".",".",".",".",".",".",".",5,3,5,3,"."],[".",".",".",".",".",".",".",".",".",".",3,".",".",".",".",".",".",".",".",".",".",5],[1,1,1,1,1,1,".",".",".",".",".",3,3,3,3,3,3,".",".",".",".","."]],[[".",5,5,0,3,".",3,3,".",".",".",".","."],[".",".",".",".",".",5,".",".",5,5,3,3,0],[3,".",".",".",".",".",".",".",".",".",".",".","."],[".",".",".",".",".",".",".",".",".",".",".",".","."]],[[".",".",".",".",".",".",".",".",".",3,3,3,".",".",".","."],[".",".",".",".",".",".",".",".",".",".",".",".",".",3,3,3],[3,3,3,3,3,3,3,3,1,".",".",".",".",".",".","."],[".",".",".",".",".",".",".",".",".",".",".",".",1,".",".","."]],[[".","."],[".","."],[3,"\\"],[".","."]]],"numberofstrings":4,"notes":["G","D","A","E"],"capo":0,"stringnotes":["G2","D2","A1","E1"],"comments":["Stave 1:","Stave 2:","Stave 3:","Stave 4:","Stave 5:","Stave 6:","Stave 7:","Stave 8:","Stave 9:"],"timing":[["W",null,"W","W"],["W","W","W","W","W","W","W","W","W","W","W","W","W","W","W","W","W"],["W","W","W","W","W","W","W","W","W","W","W","W","W","W","W","W"],["W","W","W","W","W","W","W","W","W","W","W","W",null,"W","W","W","W","W"],["W","W","W","W","W","W","W",null,"W","W","W","W","W","W","W","W","W"],["W","W","W","W","W","W","W","W","W","W","W","W","W","W","W","W","W","W","W","W","W","W"],["W","W","W","W","W","W","W","W","W","W","W","W","W"],["W","W","W","W","W","W","W","W","W","W","W","W","W","W","W","W"],["W"]],"timingvisible":false,"tabcounter":2,"stave":8,"totalstaves":9,"instrument":"4bass","selectedtuning":"4bass","version":"13"}

Member for

2 months 1 week
Submitted by LUKACAR24 on Wed, 2020-05-20 20:00