Sound will begin in 5 seconds

La Negra

Chords
01234567891011121314151617181920212223
E
B
G
D
A
E
B
0 1 2 3 4 5 6 7 8 9 10 11 12 13 14 15 16 17 18 19 20 21 22 23
Song Science #1: How Pros Use 6 Chords to Write Hit Songs
(/) Slide Up  (\) Slide Down  (h) Hammer On  (p) Pull Off  (b) Bend (r) Release (v) Vibrato

Stave 1:

E|--------0--3--------2--0-----0-----------------
B|-----0-----------0--------4--------0--4-----0--
G|--2-----------0--------------------------5-----
D|--------------------------------2--------------
A|-----------------------------------------------
E|-----------0-----------------4-----------------

Stave 2:

E|-----0--------------------8--------0---------------------
B|--1--------1-----------7------------------------------7--
G|--4-----2--------2--------------0-----8------------8-----
D|--------------2-----------------------------7--10--------
A|--0-----------------0--------------------9---------------
E|-----------------------------6--------7------------------

Stave 3:

E|--7-----5-----3--2--0-----0--------------------------
B|-----0--2--4-----0-----4-----0-----------------------
G|--------2--2-----0--------------0--------0--2--3--4--
D|-----------------------------------2--4--------------
A|--------0--2-----------------------------------------
E|-----------------0-----------------------------------

Stave 4:

E|--3--------2--0-----2-----0--12---------10------------8-----
B|--------0--------4-----0---------9--12------------10--------
G|-----0-----------------0---------9----------8--9---------0--
D|------------------------------------------------------------
A|----------------------------------------0-------------------
E|--0-----------------4--------0------------------------------

Stave 5:

E|--------8--------10-----8--------7---------------------7--
B|--------------7------------8--------8--------10-----------
G|-----7-----9------------0-----7------------------8--------
D|------------------------------------------9---------9-----
A|--9-------------------------------------------------------
E|---------------------------------------7------------------

Stave 6:

E|-----------------------------------------2--------0-----0--
B|--10-------------8-----------7--------8-----0--------4-----
G|----------9---------9-----------5--------------0-----------
D|------10-----10-----------7--------7-----------------------
A|-----------------------------------------2-----------------
E|--8--------------------5-----------------------------------

Stave 7:

E|--3--------------2--------------------7--------------0--
B|--2-----------2-----5-----------4-----------------------
G|--0-----0--3--------------2--------2-----------3--4-----
D|--2--2-----------------4-----4--------------------------
A|--1-----------------2-----------------------------------
E|--------------2-----------------------------------------

Stave 8:

E|--3--------0--------------7-----------0--3-----0--------
B|-----0--------0-----------8--------7--0--------------0--
G|--------0--------0--------8--8--------0-----0-----0-----
D|-----------------------7--------7-----------------------
A|--2-----------------------------------------------------
E|--------------------7-----------------0-----------------

Stave 9:

E|--12------------------10-----9--
B|--------------------------------
G|--12----------------------------
D|--------------------------------
A|--------------------------------
E|--12--------------10------------

http://www.guitartabcreator.com
Guitar Tab Creator is intended to store guitar tab created through the tool. It currently does not support in-line text editing. Any text you place in here will be lost. If you need to comment on your tab, please use the "Tab Notes" section located below.