Me La Avente - Carin Leon

Chords

01234567891011121314151617181920212223
E
B
G
D
A
E
B
0 1 2 3 4 5 6 7 8 9 10 11 12 13 14 15 16 17 18 19 20 21 22 23
(/) Slide Up  (\) Slide Down  (h) Hammer On  (p) Pull Off  (b) Bend (r) Release (v) Vibrato

Stave 1:

E|--------------2--2/7-----------------------------
B|--3--3--3-----3--3-8-----3--3--3-----2--3--2--0--
G|--4--4--4----------------4--4--4-----2--4--2--0--
D|-------------------------------------------------
A|-------------------------------------------------
E|-------------------------------------------------

Stave 2:

E|--2--2/7-----5--7--5--3--2--3--2-----5--9---5--
B|--3--3-8-----7--8--7--5--3--5--3-----7--10--7--
G|-----------------------------------------------
D|-----------------------------------------------
A|-----------------------------------------------
E|-----------------------------------------------

Stave 3:

E|--7--7--5--7-----5--7--5-----3--2--3--2-----0--0--0--0-----
B|--8--8--7--8-----7--8--7-----5--3--5--3-----2--2--2--2-----
G|-----------------------------------------------------------
D|-----------------------------------------------------------
A|-----------------------------------------------------------
E|-----------------------------------------------------------

							http://www.guitartabcreator.com
genre
Instruments
{"title":"Me La Avente - Carin Leon","strings":[[[".",".",".","_",2,2,"/",7,"_",".",".",".","_",".",".",".","."],[3,3,3,"_",3,3,".",8,"_",3,3,3,"_",2,3,2,0],[4,4,4,"_",".",".",".",".","_",4,4,4,"_",2,4,2,0],[".",".",".","_",".",".",".",".","_",".",".",".","_",".",".",".","."],[".",".",".","_",".",".",".",".","_",".",".",".","_",".",".",".","."],[".",".",".","_",".",".",".",".","_",".",".",".","_",".",".",".","."]],[[2,2,"/",7,"_",5,7,5,3,2,3,2,"_",5,9,5],[3,3,".",8,"_",7,8,7,5,3,5,3,"_",7,10,7],[".",".",".",".","_",".",".",".",".",".",".",".","_",".",".","."],[".",".",".",".","_",".",".",".",".",".",".",".","_",".",".","."],[".",".",".",".","_",".",".",".",".",".",".",".","_",".",".","."],[".",".",".",".","_",".",".",".",".",".",".",".","_",".",".","."]],[[7,7,5,7,"_",5,7,5,"_",3,2,3,2,"_",0,0,0,0,"_"],[8,8,7,8,"_",7,8,7,"_",5,3,5,3,"_",2,2,2,2,"_"],[".",".",".",".","_",".",".",".","_",".",".",".",".","_",".",".",".",".","_"],[".",".",".",".","_",".",".",".","_",".",".",".",".","_",".",".",".",".","_"],[".",".",".",".","_",".",".",".","_",".",".",".",".","_",".",".",".",".","_"],[".",".",".",".","_",".",".",".","_",".",".",".",".","_",".",".",".",".","_"]]],"numberofstrings":6,"notes":["E","B","G","D","A","E","B"],"capo":0,"stringnotes":["E4","B3","G3","D3","A2","E2"],"comments":["Stave 1:","Stave 2:","Stave 3:"],"timing":[["W","W","W",null,"W","W","W","W",null,"W","W","W",null,"W","W","W","W"],["W","W",null,"W",null,"W","W","W","W","W","W","W","W","W","W","W"],["W","W","W","W",null,"W","W","W",null,"W","W","W","W",null,"W","W","W","W"]],"timingvisible":false,"tabcounter":19,"stave":2,"totalstaves":3,"instrument":"6guitar","selectedtuning":"6_standard","version":"13"}

Member for

1 year 9 months
Submitted by LuisDJ on Sat, 2019-03-02 16:57