Un mundo Ideal - Aladin

Chords

01234567891011121314151617181920212223
E
B
G
D
A
E
B
0 1 2 3 4 5 6 7 8 9 10 11 12 13 14 15 16 17 18 19 20 21 22 23
(/) Slide Up  (\) Slide Down  (h) Hammer On  (p) Pull Off  (b) Bend (r) Release (v) Vibrato

Stave 1:

E|----------10--8----------------10--8-------------------------8--12--10--8------12--10--8-------------
B|--10--11---------------10--11---------8--11--10--10--10--11-----------------------------------10--8--
G|---------------------------------------------------------------------------10-------------10---------
D|-----------------------------------------------------------------------------------------------------
A|-----------------------------------------------------------------------------------------------------
E|-----------------------------------------------------------------------------------------------------

Stave 2:

E|------------------------10--8----------------10--8-------------------------8--12--10--8------12--13--
B|------8--11-----10--11---------------10--11---------8--11--10--10--10--11----------------------------
G|--10-------------------------------------------------------------------------------------10----------
D|-----------------------------------------------------------------------------------------------------
A|-----------------------------------------------------------------------------------------------------
E|-----------------------------------------------------------------------------------------------------

Stave 3:

E|--8---------------------------------------
B|---------10--8------8--11--10-------------
G|-----10---------10-------------10--9--10--
D|------------------------------------------
A|------------------------------------------
E|------------------------------------------

							http://www.guitartabcreator.com
Tab Notes

Un mundo iedal pelicula Aladin

genre
Instruments
{"title":"","strings":[[[".",".",10,8,"_","_",".",".",10,8,".",".",".",".",".",".",8,12,10,8,".",12,10,8,".",".","."],[10,11,".",".","_","_",10,11,".",".",8,11,10,10,10,11,".",".",".",".",".",".",".",".",".",10,8],[".",".",".",".","_","_",".",".",".",".",".",".",".",".",".",".",".",".",".",".",10,".",".",".",10,".","."],[".",".",".",".","_","_",".",".",".",".",".",".",".",".",".",".",".",".",".",".",".",".",".",".",".",".","."],[".",".",".",".","_","_",".",".",".",".",".",".",".",".",".",".",".",".",".",".",".",".",".",".",".",".","."],[".",".",".",".","_","_",".",".",".",".",".",".",".",".",".",".",".",".",".",".",".",".",".",".",".",".","."]],[[".",".",".","_",".",".",10,8,"_","_",".",".",10,8,".",".",".",".",".",".",8,12,10,8,".",12,13],[".",8,11,"_",10,11,".",".","_","_",10,11,".",".",8,11,10,10,10,11,".",".",".",".",".",".","."],[10,".",".","_",".",".",".",".","_","_",".",".",".",".",".",".",".",".",".",".",".",".",".",".",10,".","."],[".",".",".","_",".",".",".",".","_","_",".",".",".",".",".",".",".",".",".",".",".",".",".",".",".",".","."],[".",".",".","_",".",".",".",".","_","_",".",".",".",".",".",".",".",".",".",".",".",".",".",".",".",".","."],[".",".",".","_",".",".",".",".","_","_",".",".",".",".",".",".",".",".",".",".",".",".",".",".",".",".","."]],[[8,".",".",".",".",".",".",".",".",".","."],[".",".",10,8,".",8,11,10,".",".","."],[".",10,".",".",10,".",".",".",10,9,10],[".",".",".",".",".",".",".",".",".",".","."],[".",".",".",".",".",".",".",".",".",".","."],[".",".",".",".",".",".",".",".",".",".","."]]],"numberofstrings":6,"notes":["E","B","G","D","A","E","B"],"capo":0,"stringnotes":["E4","B3","G3","D3","A2","E2"],"comments":["Stave 1:","Stave 2:","Stave 3:"],"timing":[["W","W","W","W",null,null,"W","W","W","W","W","W","W","W","W","W","W","W","W","W","W","W","W","W","W","W","W","W"],["W","W","W",null,"W","W","W","W",null,null,"W","W","W","W","W","W","W","W","W","W","W","W","W","W","W","W","W","W"],["W","W","W","W","W","W","W","W","W","W","W"]],"timingvisible":false,"tabcounter":11,"stave":2,"totalstaves":3,"instrument":"6guitar","selectedtuning":"6_standard","version":"13"}

Member for

1 year 6 months
Submitted by luis duque on Sat, 2019-06-01 21:34