Mi buenaventura

Chords

01234567891011121314151617181920212223
E
B
G
D
A
E
B
0 1 2 3 4 5 6 7 8 9 10 11 12 13 14 15 16 17 18 19 20 21 22 23
(/) Slide Up  (\) Slide Down  (h) Hammer On  (p) Pull Off  (b) Bend (r) Release (v) Vibrato

Stave 1:

E|-----------------------------
B|--------------------------5--
G|--------4--7--5--4-----5-----
D|-----6--------------7--------
A|--7--------------------------
E|-----------------------------

Stave 2:

E|-----------------------
B|-----------------------
G|--------4--7--5--4-----
D|-----6--------------7--
A|--7--------------------
E|-----------------------

Stave 3:

E|----------------------------------
B|--6--6--5--5--10--10--9--9--8--8--
G|----------------------------------
D|----------------------------------
A|----------------------------------
E|----------------------------------

Stave 4:

E|------------------------------------
B|--7--7--6--6--5--5--10--10--10--10--
G|------------------------------------
D|------------------------------------
A|------------------------------------
E|------------------------------------

							http://www.guitartabcreator.com
genre
Instruments
{"title":"","strings":[[[".",".",".",".",".",".",".",".","."],[".",".",".",".",".",".",".",".",5],[".",".",4,7,5,4,".",5,"."],[".",6,".",".",".",".",7,".","."],[7,".",".",".",".",".",".",".","."],[".",".",".",".",".",".",".",".","."]],[[".",".",".",".",".",".","."],[".",".",".",".",".",".","."],[".",".",4,7,5,4,"."],[".",6,".",".",".",".",7],[7,".",".",".",".",".","."],[".",".",".",".",".",".","."]],[[".",".",".",".",".",".",".",".",".","."],[6,6,5,5,10,10,9,9,8,8],[".",".",".",".",".",".",".",".",".","."],[".",".",".",".",".",".",".",".",".","."],[".",".",".",".",".",".",".",".",".","."],[".",".",".",".",".",".",".",".",".","."]],[[".",".",".",".",".",".",".",".",".","."],[7,7,6,6,5,5,10,10,10,10],[".",".",".",".",".",".",".",".",".","."],[".",".",".",".",".",".",".",".",".","."],[".",".",".",".",".",".",".",".",".","."],[".",".",".",".",".",".",".",".",".","."]]],"numberofstrings":6,"notes":["E","B","G","D","A","E","B"],"capo":0,"stringnotes":["E4","B3","G3","D3","A2","E2"],"comments":["Stave 1:","Stave 2:","Stave 3:","Stave 4:"],"timing":[["W","W","W","W","W","W","W","W","W"],["W","W","W","W","W","W","W"],["W","W","W","W","W","W","W","W","W","W","W","W","W","W","W","W","W","W","W","W"],["W","W","W","W","W","W","W","W","W","W"]],"timingvisible":false,"tabcounter":10,"stave":3,"totalstaves":4,"instrument":"6guitar","selectedtuning":"6_standard","version":"13"}

Member for

1 year 6 months
Submitted by luis duque on Tue, 2020-04-14 09:58