Color Esperanza - Bass Cover 5

Chords

01234567891011121314151617181920212223
E
B
G
D
A
E
B
0 1 2 3 4 5 6 7 8 9 10 11 12 13 14 15 16 17 18 19 20 21 22 23
(/) Slide Up  (\) Slide Down  (h) Hammer On  (p) Pull Off  (b) Bend (r) Release (v) Vibrato

Stave 1:

G|--------------------------------------------
D|--------------------------------5--5-----5--
A|-----8--8--------8--8--------5--------5-----
E|--6--------6--5--------5--3-----------------
B|--------------------------------------------

Stave 2:

G|-------------------------------------------
D|-------------------------------------------
A|--3-----3--3-----3--------3/8--8--8--------
E|-----3--------3-----1--1-------------8--6--
B|-------------------------------------------

Stave 3:

G|--------------------------------------------
D|-----------------------------5--5-----5-----
A|--8--8--------5--5--------5--------5-----6--
E|--------6--5--------5--3--------------------
B|--------------------------------------------

Stave 4:

G|--------------------------------------
D|--------------------------------------
A|-----6--6-----6--8-----8--8-----8-----
E|--6--------6--------8--------8-----6--
B|--------------------------------------

Stave 5:

G|-----------------------------------------------------------
D|--------------------------------------------5--5-----5-----
A|-----8--8--------8--8--------5--5--------5--------5-----6--
E|--8--------8--6--------6--5--------5--3--------------------
B|-----------------------------------------------------------

							http://www.guitartabcreator.com
Instruments
{"strings":[[[".",".",".",".",".",".",".",".",".",".",".",".",".","."],[".",".",".",".",".",".",".",".",".",".",5,5,".",5],[".",8,8,".",".",8,8,".",".",5,".",".",5,"."],[6,".",".",6,5,".",".",5,3,".",".",".",".","."],[".",".",".",".",".",".",".",".",".",".",".",".",".","."]],[[".",".",".",".",".",".",".",".",".",".",".",".",".",".","."],[".",".",".",".",".",".",".",".",".",".",".",".",".",".","."],[3,".",3,3,".",3,".",".",3,"/",8,8,8,".","."],[".",3,".",".",3,".",1,1,".",".",".",".",".",8,6],[".",".",".",".",".",".",".",".",".",".",".",".",".",".","."]],[[".",".",".",".",".",".",".",".",".",".",".",".",".","."],[".",".",".",".",".",".",".",".",".",5,5,".",5,"."],[8,8,".",".",5,5,".",".",5,".",".",5,".",6],[".",".",6,5,".",".",5,3,".",".",".",".",".","."],[".",".",".",".",".",".",".",".",".",".",".",".",".","."]],[[".",".",".",".",".",".",".",".",".",".",".","."],[".",".",".",".",".",".",".",".",".",".",".","."],[".",6,6,".",6,8,".",8,8,".",8,"."],[6,".",".",6,".",".",8,".",".",8,".",6],[".",".",".",".",".",".",".",".",".",".",".","."]],[[".",".",".",".",".",".",".",".",".",".",".",".",".",".",".",".",".",".","."],[".",".",".",".",".",".",".",".",".",".",".",".",".",".",5,5,".",5,"."],[".",8,8,".",".",8,8,".",".",5,5,".",".",5,".",".",5,".",6],[8,".",".",8,6,".",".",6,5,".",".",5,3,".",".",".",".",".","."],[".",".",".",".",".",".",".",".",".",".",".",".",".",".",".",".",".",".","."]]],"numberofstrings":5,"notes":["G","D","A","E","B"],"capo":0,"stringnotes":["G2","D2","A1","E1","B0"],"comments":["Stave 1:","Stave 2:","Stave 3:","Stave 4:","Stave 5:"],"timing":[["W","W","W","W","W","W","W","W","W","W","W","W","W","W"],["W","W","W","W","W","W","W","W","W",null,"W","W","W","W","W"],["W","W","W","W","W","W","W","W","W","W","W","W","W","W","W","W","W","W","W","W","W"],["W","W","W","W","W","W","W","W","W","W","W","W"],["W","W","W","W","W","W","W","W","W","W","W","W","W","W","W","W","W","W","W"]],"timingvisible":false,"tabcounter":19,"stave":4,"totalstaves":5,"instrument":"5bass","selectedtuning":"5bass","version":"13"}

Member for

1 year 6 months
Submitted by luis duque on Sat, 2020-05-02 12:32