Color Esperanza - Bass Cover 4

Chords

01234567891011121314151617181920212223
E
B
G
D
A
E
B
0 1 2 3 4 5 6 7 8 9 10 11 12 13 14 15 16 17 18 19 20 21 22 23
(/) Slide Up  (\) Slide Down  (h) Hammer On  (p) Pull Off  (b) Bend (r) Release (v) Vibrato

Stave 1:

G|-----------------------------------------------
D|-----------------------5--4--------------------
A|-----5--5-----5-----5-----------5--7-----7--7--
E|--5--------5-----3-----------7--------7--------
B|-----------------------------------------------

Stave 2:

G|--------------------------------------------
D|--------------------------------------------
A|--------------------------5-----5--5-----5--
E|--5--7--8-----8--8-----8-----5--------5-----
B|-----------8--------8-----------------------

Stave 3:

G|-----------------------------------------------------
D|--------------------------------7--------------------
A|--7--7--6--6--5--5--4--7-----7--------7--5--5-----5--
E|--------------------------5--------5-----------5-----
B|-----------------------------------------------------

							http://www.guitartabcreator.com
Instruments
{"strings":[[[".",".",".",".",".",".",".",".",".",".",".",".",".",".","."],[".",".",".",".",".",".",".",5,4,".",".",".",".",".","."],[".",5,5,".",5,".",5,".",".",".",5,7,".",7,7],[5,".",".",5,".",3,".",".",".",7,".",".",7,".","."],[".",".",".",".",".",".",".",".",".",".",".",".",".",".","."]],[[".",".",".",".",".",".",".",".",".",".",".",".",".","."],[".",".",".",".",".",".",".",".",".",".",".",".",".","."],[".",".",".",".",".",".",".",".",5,".",5,5,".",5],[5,7,8,".",8,8,".",8,".",5,".",".",5,"."],[".",".",".",8,".",".",8,".",".",".",".",".",".","."]],[[".",".",".",".",".",".",".",".",".",".",".",".",".",".",".",".","."],[".",".",".",".",".",".",".",".",".",".",7,".",".",".",".",".","."],[7,7,6,6,5,5,4,7,".",7,".",".",7,5,5,".",5],[".",".",".",".",".",".",".",".",5,".",".",5,".",".",".",5,"."],[".",".",".",".",".",".",".",".",".",".",".",".",".",".",".",".","."]]],"numberofstrings":5,"notes":["G","D","A","E","B"],"capo":0,"stringnotes":["G2","D2","A1","E1","B0"],"comments":["Stave 1:","Stave 2:","Stave 3:"],"timing":[["W","W","W","W","W","W","W","W","W","W","W","W","W","W","W"],["W","W","W","W","W","W","W","W","W","W","W","W","W","W"],["W","W","W","W","W","W","W","W","W","W","W","W","W","W","W","W","W"]],"timingvisible":false,"tabcounter":17,"stave":2,"totalstaves":3,"instrument":"5bass","selectedtuning":"5bass","version":"13"}

Member for

1 year 6 months
Submitted by luis duque on Sat, 2020-05-02 11:38