Color Esperanza - Bass Cover 2

Chords

01234567891011121314151617181920212223
E
B
G
D
A
E
B
0 1 2 3 4 5 6 7 8 9 10 11 12 13 14 15 16 17 18 19 20 21 22 23
(/) Slide Up  (\) Slide Down  (h) Hammer On  (p) Pull Off  (b) Bend (r) Release (v) Vibrato

Stave 1:

G|--------------------------------------
D|--------------------------------------
A|--------7--5-----5-----5-----3-----3--
E|--7--7--------5-----3-----3-----3-----
B|--------------------------------------

Stave 2:

G|-------------------------------
D|----------------5-----5--5-----
A|--3--3--2h3--2-----2--------2--
E|-------------------------------
B|-------------------------------

Stave 3:

G|----------------------------------------
D|--------7--7/9--7-----------------------
A|-----7-------------7--5--5--------------
E|--5-------------------------5--------2--
B|-------------------------------3--3-----

							http://www.guitartabcreator.com
Instruments
{"strings":[[[".",".",".",".",".",".",".",".",".",".",".","."],[".",".",".",".",".",".",".",".",".",".",".","."],[".",".",7,5,".",5,".",5,".",3,".",3],[7,7,".",".",5,".",3,".",3,".",3,"."],[".",".",".",".",".",".",".",".",".",".",".","."]],[[".",".",".",".",".",".",".",".",".",".","."],[".",".",".",".",".",".",5,".",5,5,"."],[3,3,2,"h",3,2,".",2,".",".",2],[".",".",".",".",".",".",".",".",".",".","."],[".",".",".",".",".",".",".",".",".",".","."]],[[".",".",".",".",".",".",".",".",".",".",".",".",".","."],[".",".",7,7,"/",9,7,".",".",".",".",".",".","."],[".",7,".",".",".",".",".",7,5,5,".",".",".","."],[5,".",".",".",".",".",".",".",".",".",5,".",".",2],[".",".",".",".",".",".",".",".",".",".",".",3,3,"."]]],"numberofstrings":5,"notes":["G","D","A","E","B"],"capo":0,"stringnotes":["G2","D2","A1","E1","B0"],"comments":["Stave 1:","Stave 2:","Stave 3:"],"timing":[["W","W","W","W","W","W","W","W","W","W","W","W"],["W","W","W",null,"W","W","W","W","W","W","W"],["W","W","W","W",null,"W","W","W","W","W","W","W","W","W"]],"timingvisible":false,"tabcounter":14,"stave":2,"totalstaves":3,"instrument":"5bass","selectedtuning":"5bass","version":"13"}

Member for

1 year 4 months
Submitted by luis duque on Sat, 2020-05-02 09:51