Bohemian Rhapsody 2

Chords

01234567891011121314151617181920212223
E
B
G
D
A
E
B
0 1 2 3 4 5 6 7 8 9 10 11 12 13 14 15 16 17 18 19 20 21 22 23
(/) Slide Up  (\) Slide Down  (h) Hammer On  (p) Pull Off  (b) Bend (r) Release (v) Vibrato

Stave 1:

E|----------------------15--16--18----------------------
B|----------15--16--18----------------------15--16--18--
G|--15--17--------------------------15--17--------------
D|------------------------------------------------------
A|------------------------------------------------------
E|------------------------------------------------------

Stave 2:

E|--15--16--18--18b20----------------------------------
B|---------------------15--16--13--15--16--13--15--16--
G|-----------------------------------------------------
D|-----------------------------------------------------
A|-----------------------------------------------------
E|-----------------------------------------------------

Stave 3:

E|---------------------13--------------------------
B|--16b18----------------------14--14--14--14--14--
G|-------------12--13------13----------------------
D|---------15--------------------------------------
A|-------------------------------------------------
E|-------------------------------------------------

Stave 4:

E|-------------
B|-------------
G|--6h7p6\4\2--
D|-------------
A|-------------
E|-------------

							http://www.guitartabcreator.com
genre
Instruments
{"title":"","strings":[[[".",".",".",".",".",15,16,18,".",".",".",".","."],[".",".",15,16,18,".",".",".",".",".",15,16,18],[15,17,".",".",".",".",".",".",15,17,".",".","."],[".",".",".",".",".",".",".",".",".",".",".",".","."],[".",".",".",".",".",".",".",".",".",".",".",".","."],[".",".",".",".",".",".",".",".",".",".",".",".","."]],[[15,16,18,18,"b",20,".",".",".",".",".",".",".","."],[".",".",".",".",".",".",15,16,13,15,16,13,15,16],[".",".",".",".",".",".",".",".",".",".",".",".",".","."],[".",".",".",".",".",".",".",".",".",".",".",".",".","."],[".",".",".",".",".",".",".",".",".",".",".",".",".","."],[".",".",".",".",".",".",".",".",".",".",".",".",".","."]],[[".",".",".",".",".",".",13,".",".",".",".",".","."],[16,"b",18,".",".",".",".",".",14,14,14,14,14],[".",".",".",".",12,13,".",13,".",".",".",".","."],[".",".",".",15,".",".",".",".",".",".",".",".","."],[".",".",".",".",".",".",".",".",".",".",".",".","."],[".",".",".",".",".",".",".",".",".",".",".",".","."]],[[".",".",".",".",".",".",".",".","."],[".",".",".",".",".",".",".",".","."],[6,"h",7,"p",6,"\\",4,"\\",2],[".",".",".",".",".",".",".",".","."],[".",".",".",".",".",".",".",".","."],[".",".",".",".",".",".",".",".","."]]],"numberofstrings":6,"notes":["E","B","G","D","A","E","B"],"capo":0,"stringnotes":["E4","B3","G3","D3","A2","E2"],"comments":["Stave 1:","Stave 2:","Stave 3:","Stave 4:"],"timing":[["W","W","W","W","W","W","W","W","W","W","W","W","W","W","W","W"],["W","W","W","W",null,"W","W","W","W","W","W","W","W","W"],["W",null,"W","W","W","W","W","W","W","W","W","W","W"],["W",null,"W",null,"W",null,"W",null,"W"]],"timingvisible":false,"tabcounter":9,"stave":3,"totalstaves":4,"instrument":"6guitar","selectedtuning":"6_standard","version":"13"}

Member for

1 year
Submitted by luis duque on Sat, 2020-03-28 15:59