Bohemian Rhapsody

Chords

01234567891011121314151617181920212223
E
B
G
D
A
E
B
0 1 2 3 4 5 6 7 8 9 10 11 12 13 14 15 16 17 18 19 20 21 22 23
(/) Slide Up  (\) Slide Down  (h) Hammer On  (p) Pull Off  (b) Bend (r) Release (v) Vibrato

Stave 1:

E|-------------------------------------------------------
B|-----------------11--8--11b13--13--15--16--13--15--16--
G|-----10b12r10p8----------------------------------------
D|--8----------------------------------------------------
A|-------------------------------------------------------
E|-------------------------------------------------------

Stave 2:

E|-----------------15--16--18--18b20--20r18--16--15--16--
B|--16b18--13--18----------------------------------------
G|-------------------------------------------------------
D|-------------------------------------------------------
A|-------------------------------------------------------
E|-------------------------------------------------------

Stave 3:

E|--15h16p15------15--------------------------------------------
B|------------18------18--16--15--16--15h16p15------15----------
G|----------------------------------------------17------17--15--
D|--------------------------------------------------------------
A|--------------------------------------------------------------
E|--------------------------------------------------------------

							http://www.guitartabcreator.com
genre
Instruments
{"title":"","strings":[[[".",".",".",".",".",".",".",".",".",".",".",".",".",".",".",".",".",".","."],[".",".",".",".",".",".",".",".",11,8,11,"b",13,13,15,16,13,15,16],[".",10,"b",12,"r",10,"p",8,".",".",".",".",".",".",".",".",".",".","."],[8,".",".",".",".",".",".",".",".",".",".",".",".",".",".",".",".",".","."],[".",".",".",".",".",".",".",".",".",".",".",".",".",".",".",".",".",".","."],[".",".",".",".",".",".",".",".",".",".",".",".",".",".",".",".",".",".","."]],[[".",".",".",".",".",15,16,18,18,"b",20,20,"r",18,16,15,16],[16,"b",18,13,18,".",".",".",".",".",".",".",".",".",".",".","."],[".",".",".",".",".",".",".",".",".",".",".",".",".",".",".",".","."],[".",".",".",".",".",".",".",".",".",".",".",".",".",".",".",".","."],[".",".",".",".",".",".",".",".",".",".",".",".",".",".",".",".","."],[".",".",".",".",".",".",".",".",".",".",".",".",".",".",".",".","."]],[[15,"h",16,"p",15,".",15,".",".",".",".",".",".",".",".",".",".",".",".","."],[".",".",".",".",".",18,".",18,16,15,16,15,"h",16,"p",15,".",15,".","."],[".",".",".",".",".",".",".",".",".",".",".",".",".",".",".",".",17,".",17,15],[".",".",".",".",".",".",".",".",".",".",".",".",".",".",".",".",".",".",".","."],[".",".",".",".",".",".",".",".",".",".",".",".",".",".",".",".",".",".",".","."],[".",".",".",".",".",".",".",".",".",".",".",".",".",".",".",".",".",".",".","."]]],"numberofstrings":6,"notes":["E","B","G","D","A","E","B"],"capo":0,"stringnotes":["E4","B3","G3","D3","A2","E2"],"comments":["Stave 1:","Stave 2:","Stave 3:"],"timing":[["W","W",null,"W",null,"W",null,"W","W","W","W",null,"W","W","W","W","W","W","W"],["W",null,"W","W","W","W","W","W","W",null,"W","W","W","W","W","W","W","W",null,"W"],["W",null,"W",null,"W","W","W","W","W","W","W","W",null,"W",null,"W","W","W","W","W"]],"timingvisible":false,"tabcounter":20,"stave":2,"totalstaves":3,"instrument":"6guitar","selectedtuning":"6_standard","version":"13"}

Member for

1 year
Submitted by luis duque on Sat, 2020-03-28 15:51