SOLA

01234567891011121314151617181920212223
E
B
G
D
A
E
B
0 1 2 3 4 5 6 7 8 9 10 11 12 13 14 15 16 17 18 19 20 21 22 23
(/) Slide Up  (\) Slide Down  (h) Hammer On  (p) Pull Off  (b) Bend (r) Release (v) Vibrato

Stave 1:

E|--------------------------
B|--------------------------
G|-----------------5--7--9--
D|--------------------------
A|--3--5--7-----7-----------
E|--------------------------

Stave 2:

E|----------------------------------------------
B|--12--10--13--12--10--12--10--13--12--10--10--
G|----------------------------------------------
D|----------------------------------------------
A|----------------------------------------------
E|----------------------------------------------

Stave 3:

E|--12--10--8------10--8----------8-------------------------------------------------------------------------
B|-------------12---------12--10-----12--10--8--12--10--8--8--12--10--8--8--12--10--8--8--12--10--8---------
G|---------------------------------------------------------------------------------------------------11--9--
D|----------------------------------------------------------------------------------------------------------
A|----------------------------------------------------------------------------------------------------------
E|----------------------------------------------------------------------------------------------------------

Stave 4:

E|--12--12--14--15--17--19--22b20h22--20--19--20--19h20p19-----17------
B|--15--15--17--18--20--22----------------------------------20b----20--
G|---------------------------------------------------------------------
D|---------------------------------------------------------------------
A|---------------------------------------------------------------------
E|---------------------------------------------------------------------

Stave 5:

E|------------------------------------------------------------------------
B|----------------------15b15--12-----------------------------------------
G|---------------------------------14b14--12------------------------------
D|------------------12------------------------14--13--12------------------
A|----------12--14----------------------------------------14--13--12--12--
E|--12--15----------------------------------------------------------------

Stave 6:

E|------------------------------------------
B|--12p8p5-----13p8p5-----10p5h8--12p8p5----
G|----------------------------------------7b
D|------------------------------------------
A|------------------------------------------
E|------------------------------------------

Stave 7:

E|-------------------------------------------------------------------------------
B|----------------------------15b15--12------------------------------------------
G|----------------------14b--------------14--12----------------------------------
D|------------------12---------------------------14--13--12----------------------
A|----------12--14-------------------------------------------14--13--12----------
E|--12--15---------------------------------------------------------------15--12--

Stave 8:

E|-----------------------------------------------------------------------------
B|------------------------------------------------------------7----------------
G|--14b14--12h13h14--12--11--12\7--7--9--9--7-----------------7-----------9b9--
D|------------------------------------------------7--9--7--9--7-----7--9-------
A|-----------------------------------------------------------------------------
E|-----------------------------------------------------------------------------

Stave 9:

E|--------------12--14--15--15b---17--20--19--17--19--17------17-------------17----------------------------------------
B|--15b15b---15b------------------------------------------20------20--17--20b----20b---20b20--17-----20-----20-----20--
G|------------------------------------------------------------------------------------------------19b----19b----19b----
D|---------------------------------------------------------------------------------------------------------------------
A|---------------------------------------------------------------------------------------------------------------------
E|---------------------------------------------------------------------------------------------------------------------

Stave 10:

E|--------------------
B|--------------7-----
G|--------------7-----
D|--7--9--7--9--7-----
A|--------------------
E|--------------------

Stave 11:

E|-------------------------
B|-------------------------
G|---------9b---9--11--12--
D|--7h9p7------------------
A|-------------------------
E|-------------------------

							http://www.guitartabcreator.com
Chords

Instruments
{"strings":[[[".",".",".","_",".",".",".","."],[".",".",".","_",".",".",".","."],[".",".",".","_",".",5,7,9],[".",".",".","_",".",".",".","."],[3,5,7,"_",7,".",".","."],[".",".",".","_",".",".",".","."]],[[".",".",".",".",".",".",".",".",".",".","."],[12,10,13,12,10,12,10,13,12,10,10],[".",".",".",".",".",".",".",".",".",".","."],[".",".",".",".",".",".",".",".",".",".","."],[".",".",".",".",".",".",".",".",".",".","."],[".",".",".",".",".",".",".",".",".",".","."]],[[12,10,8,".",10,8,".",".",8,".",".",".",".",".",".",".",".",".",".",".",".",".",".",".",".",".",".",".","."],[".",".",".",12,".",".",12,10,".",12,10,8,12,10,8,8,12,10,8,8,12,10,8,8,12,10,8,".","."],[".",".",".",".",".",".",".",".",".",".",".",".",".",".",".",".",".",".",".",".",".",".",".",".",".",".",".",11,9],[".",".",".",".",".",".",".",".",".",".",".",".",".",".",".",".",".",".",".",".",".",".",".",".",".",".",".",".","."],[".",".",".",".",".",".",".",".",".",".",".",".",".",".",".",".",".",".",".",".",".",".",".",".",".",".",".",".","."],[".",".",".",".",".",".",".",".",".",".",".",".",".",".",".",".",".",".",".",".",".",".",".",".",".",".",".",".","."]],[[12,12,14,15,17,19,22,"b",20,"h",22,20,19,20,19,"h",20,"p",19,".",".",17,"."],[15,15,17,18,20,22,".",".",".",".",".",".",".",".",".",".",".",".",".",20,"b",".",20],[".",".",".",".",".",".",".",".",".",".",".",".",".",".",".",".",".",".",".",".",".",".","."],[".",".",".",".",".",".",".",".",".",".",".",".",".",".",".",".",".",".",".",".",".",".","."],[".",".",".",".",".",".",".",".",".",".",".",".",".",".",".",".",".",".",".",".",".",".","."],[".",".",".",".",".",".",".",".",".",".",".",".",".",".",".",".",".",".",".",".",".",".","."]],[[".",".",".",".",".",".",".",".",".",".",".",".",".",".",".",".",".",".",".","."],[".",".",".",".",".",15,"b",15,12,".",".",".",".",".",".",".",".",".",".","."],[".",".",".",".",".",".",".",".",".",14,"b",14,12,".",".",".",".",".",".","."],[".",".",".",".",12,".",".",".",".",".",".",".",".",14,13,12,".",".",".","."],[".",".",12,14,".",".",".",".",".",".",".",".",".",".",".",".",14,13,12,12],[12,15,".",".",".",".",".",".",".",".",".",".",".",".",".",".",".",".",".","."]],[[".",".",".",".",".","_",".",".",".",".",".","_",".",".",".",".",".",".",".",".",".",".",".","."],[12,"p",8,"p",5,"_",13,"p",8,"p",5,"_",10,"p",5,"h",8,12,"p",8,"p",5,".","."],[".",".",".",".",".","_",".",".",".",".",".","_",".",".",".",".",".",".",".",".",".",".",7,"b"],[".",".",".",".",".","_",".",".",".",".",".","_",".",".",".",".",".",".",".",".",".",".",".","."],[".",".",".",".",".","_",".",".",".",".",".","_",".",".",".",".",".",".",".",".",".",".",".","."],[".",".",".",".",".","_",".",".",".",".",".","_",".",".",".",".",".",".",".",".",".",".",".","."]],[[".",".",".",".",".",".",".","_",".",".",".",".",".",".",".",".",".",".",".",".",".","."],[".",".",".",".",".",".",".","_",15,"b",15,12,".",".",".",".",".",".",".",".",".","."],[".",".",".",".",".",14,"b","_",".",".",".",".",14,12,".",".",".",".",".",".",".","."],[".",".",".",".",12,".",".","_",".",".",".",".",".",".",14,13,12,".",".",".",".","."],[".",".",12,14,".",".",".","_",".",".",".",".",".",".",".",".",".",14,13,12,".","."],[12,15,".",".",".",".",".","_",".",".",".",".",".",".",".",".",".",".",".",".",15,12]],[[".",".",".",".",".",".",".",".",".",".",".",".",".",".",".",".",".","_",".",".",".",".",".","_",".",".",".",".","."],[".",".",".",".",".",".",".",".",".",".",".",".",".",".",".",".",".","_",".",".",".",".",7,"_",".",".",".",".","."],[14,"b",14,12,"h",13,"h",14,12,11,12,"\\",7,7,9,9,7,"_",".",".",".",".",7,"_",".",".",9,"b",9],[".",".",".",".",".",".",".",".",".",".",".",".",".",".",".",".",".","_",7,9,7,9,7,"_",7,9,".",".","."],[".",".",".",".",".",".",".",".",".",".",".",".",".",".",".",".",".","_",".",".",".",".",".","_",".",".",".",".","."],[".",".",".",".",".",".",".",".",".",".",".",".",".",".",".",".",".","_",".",".",".",".",".","_",".",".",".",".","."]],[[".",".",".",".","_",".",".",12,14,15,15,"b","_",17,20,19,17,19,17,".",17,".",".",".",".",17,".",".","_",".",".",".",".",".",".",".",".",".",".",".",".","."],[15,"b",15,"b","_",15,"b",".",".",".",".",".","_",".",".",".",".",".",".",20,".",20,17,20,"b",".",20,"b","_",20,"b",20,17,".",".",20,".",".",20,".",".",20],[".",".",".",".","_",".",".",".",".",".",".",".","_",".",".",".",".",".",".",".",".",".",".",".",".",".",".",".","_",".",".",".",".",19,"b",".",19,"b",".",19,"b","."],[".",".",".",".","_",".",".",".",".",".",".",".","_",".",".",".",".",".",".",".",".",".",".",".",".",".",".",".","_",".",".",".",".",".",".",".",".",".",".",".",".","."],[".",".",".",".","_",".",".",".",".",".",".",".","_",".",".",".",".",".",".",".",".",".",".",".",".",".",".",".","_",".",".",".",".",".",".",".",".",".",".",".",".","."],[".",".",".",".","_",".",".",".",".",".",".",".","_",".",".",".",".",".",".",".",".",".",".",".",".",".",".",".","_",".",".",".",".",".",".",".",".",".",".",".",".","."]],[[".",".",".",".",".","."],[".",".",".",".",7,"."],[".",".",".",".",7,"."],[7,9,7,9,7,"."],[".",".",".",".",".","."],[".",".",".",".",".","."]],[[".",".",".",".",".",".",".","_",".",".","."],[".",".",".",".",".",".",".","_",".",".","."],[".",".",".",".",".",9,"b","_",9,11,12],[7,"h",9,"p",7,".",".","_",".",".","."],[".",".",".",".",".",".",".","_",".",".","."],[".",".",".",".",".",".",".","_",".",".","."]]],"numberofstrings":6,"notes":["E","B","G","D","A","E","B"],"capo":0,"stringnotes":["E4","B3","G3","D3","A2","E2"],"comments":["Stave 1:","Stave 2:","Stave 3:","Stave 4:","Stave 5:","Stave 6:","Stave 7:","Stave 8:","Stave 9:","Stave 10:","Stave 11:"],"timing":[["W","W","W",null,"W","W","W","W"],["W","W","W","W","W","W","W","W","W","W","W"],["W","W","W","W","W","W","W","W","W","W","W","W","W","W","W","W","W","W","W","W","W","W","W","W","W","W","W","W","W"],["W","W","W","W","W","W","W",null,"W",null,"W","W","W","W","W",null,"W",null,"W","W",null,"W","W","W"],["W","W","W","W","W","W",null,"W","W","W",null,"W","W","W","W","W","W","W","W","W"],["W",null,"W",null,"W",null,"W",null,"W",null,"W",null,"W",null,"W",null,"W","W","W","W",null,"W","W"],["W","W","W","W","W","W",null,"W","W",null,"W","W","W","W","W","W","W","W","W","W","W","W"],["W",null,"W","W",null,"W",null,"W","W","W","W",null,"W","W","W","W","W",null,"W","W","W","W","W",null,"W","W","W",null,"W"],["W",null,"W",null,"W","W",null,"W","W","W","W",null,"W","W","W","W","W","W","W","W","W","W","W","W",null,"W","W",null,"W","W",null,"W","W","W",null,"W","W",null,"W","W",null,"W"],["W","W","W","W","W"],["W",null,"W",null,"W","W",null,"W","W","W","W"]],"timingvisible":false,"tabcounter":11,"stave":10,"totalstaves":11,"instrument":"6guitar","selectedtuning":"6_standard","version":"13"}

Member for

3 months 2 weeks
Submitted by luigip on Thu, 2021-01-21 17:00