Sound will begin in 5 seconds

Heart Terror

Chords
01234567891011121314151617181920212223
E
B
G
D
A
E
B
0 1 2 3 4 5 6 7 8 9 10 11 12 13 14 15 16 17 18 19 20 21 22 23
Song Science #1: How Pros Use 6 Chords to Write Hit Songs
(/) Slide Up  (\) Slide Down  (h) Hammer On  (p) Pull Off  (b) Bend (r) Release (v) Vibrato

Stave 1:

D|--------------------------------------
A|--------------------------------------
F|--------------------5--5--2--2--2--2--
C|--2--2--0--0--0--0--5--5--2--2--2--2--
G|--2--2--0--0--0--0--3--3--0--0--0--0--
C|--2--2--0--0--0--0--------------------

Stave 2:

D|--------------------------
A|--------------------------
F|--------------------4--5--
C|--2--2--0--0--0--0--4--5--
G|--2--2--0--0--0--0--2--3--
C|--2--2--0--0--0--0--------

Stave 3:

D|--------------------------------------------------------------
A|------------12----------12------------------------------------
F|-----9--12------12--11------11--9-----------------------4--5--
C|--9--------------------------------10--9--10------9-----------
G|----------------------------------------------10-----7--3--0--
C|--------------------------------------------------------------

Stave 4:

D|--------------
A|--------------
F|--------5-----
C|--2--5--5--0--
G|--2--5--3--0--
C|--2--5-----0--

Stave 5:

D|-------------
A|-------------
F|--------5----
C|--2--5--5----
G|--2--5--3--5b
C|--2--5-------

Stave 6:

D|--------
A|-----9--
F|--9-----
C|--------
G|--------
C|--------

Stave 7:

D|--------------------------
A|--------------------------
F|-----------5--------5--2--
C|--2--5--0--5--2--5--5--2--
G|--2--5--0--3--2--5--3--0--
C|--2--5--0-----2--5--------

Stave 8:

D|-----
A|-----
F|--7--
C|--7--
G|--5--
C|-----

http://www.guitartabcreator.com
Guitar Tab Creator is intended to store guitar tab created through the tool. It currently does not support in-line text editing. Any text you place in here will be lost. If you need to comment on your tab, please use the "Tab Notes" section located below.