Sound will begin in 5 seconds

Exposure

Chords
01234567891011121314151617181920212223
E
B
G
D
A
E
B
0 1 2 3 4 5 6 7 8 9 10 11 12 13 14 15 16 17 18 19 20 21 22 23
Song Science #1: How Pros Use 6 Chords to Write Hit Songs
(/) Slide Up  (\) Slide Down  (h) Hammer On  (p) Pull Off  (b) Bend (r) Release (v) Vibrato

Stave 1:

D|---------------------------------------------------------------
A|---------------------------------------------------------------
F|---------------------------------------------------------------
C|--------7--------------11--------------7--------------6--------
G|-----4--------4-----9---------9-----5--------5-----2--------2--
C|--4--------4-----9---------9-----0--------0-----2--------2-----

Stave 2:

D|------------------------------------------------------------------
A|------------------------------------------------------------------
F|------------------------------------------------------------------
C|--------7--------------7--------------11--------------------------
G|-----4--------4-----5--------5-----9---------9-----9--5-----9--5--
C|--4--------4-----0--------0-----9---------9-----0--------0--------

Stave 3:

D|-----------------------------------
A|-----------------------------------
F|-----------7--6--------------------
C|--4-----4--x--x--4--------4--7--6--
G|-----5--4--5--4--4--7--5--4--7--6--
C|--------4--0--0--4--------4--7--6--

Stave 4:

D|---------------------------------------------
A|---------------------------------------------
F|---------------------------------------------
C|--4--2--4--11--4--------0--------0--------6--
G|--4--2--4--9---0-----4--------4--------4--2--
C|--4--2--4--9---0--0--------0--------0-----2--

Stave 5:

D|-----------------------------
A|-----------------------------
F|--------6--------6--------8--
C|-----4--------4--------4--7--
G|--2--------2--------2-----5--
C|-----------------------------

Stave 6:

D|----------------------------------------
A|----------------------------------------
F|----------------------------------4--6--
C|--4--4--4--------4----------------x--x--
G|--4--------5--4--4--4--4--5--4p0--2--4--
C|--4--------------4----------------0--0--

Stave 7:

D|------------
A|------------
F|------------
C|--11--7--7--
G|--9---7--6--
C|--9---7--6--

Stave 8:

D|-----
A|-----
F|-----
C|--0--
G|--4--
C|--0--

http://www.guitartabcreator.com
Guitar Tab Creator is intended to store guitar tab created through the tool. It currently does not support in-line text editing. Any text you place in here will be lost. If you need to comment on your tab, please use the "Tab Notes" section located below.