Sound will begin in 5 seconds

own song

Chords
01234567891011121314151617181920212223
E
B
G
D
A
E
B
0 1 2 3 4 5 6 7 8 9 10 11 12 13 14 15 16 17 18 19 20 21 22 23
(/) Slide Up  (\) Slide Down  (h) Hammer On  (p) Pull Off  (b) Bend (r) Release (v) Vibrato

Gtr1

E|-----3-----3-|-----2-----2-|-----1-----1-|-----0-----0-|-
B|---0-----0---|---0-----0---|---0-----0---|---0-----0---|-
G|-0-----0-----|-0-----0-----|-0-----0-----|-0-----0-----|-
D|-------------|-------------|-------------|-------------|-
A|-------------|-------------|-------------|-------------|-
E|-------------|-------------|-------------|-------------|-

Gtr2

E|-------15-------15-|-------14-------14-|-------13-------13-|-------12-------12-
B|----12-------12----|----12-------12----|----12-------12----|----12-------12----
G|-12-------12-------|-12-------12-------|-12-------12-------|-12-------12-------
D|-------------------|-------------------|-------------------|-------------------
A|-------------------|-------------------|-------------------|-------------------
E|-------------------|-------------------|-------------------|-------------------

Gtr1

E|-----3-----3-|-----2-----2-|-----1-----1-|-----0-----0-|-
B|---0-----0---|---0-----0---|---0-----0---|---0-----0---|-
G|-0-----0-----|-0-----0-----|-0-----0-----|-0-----0-----|-
D|-------------|-------------|-------------|-------------|-
A|-------------|-------------|-------------|-------------|-
E|-------------|-------------|-------------|-------------|-

Gtr2

E|-3-x-3-3-x-3-|-2-x-2-2-x-2-|-1-x-1-1-x-1-|-0----0-0----|-
B|-3-x-3-3-x-3-|-4-x-4-4-x-4-|-1-x-1-1-x-1-|-0----0-0----|-
G|-4-x-4-4-x-4-|-4-x-4-4-x-4-|-2-x-2-2-x-2-|-1----1-1----|-
D|-5-x-5-5-x-5-|-4-x-4-4-x-4-|-3-x-3-3-x-3-|-2----2-2----|-
A|-5-x-5-5-x-5-|-2-x-2-2-x-2-|-3-x-3-3-x-3-|-2----2-2----|-
E|-3-x-3-3-x-3-|-x-x-x-x-x-x-|-1-x-1-1-x-1-|-0----0-0----|-

http://www.guitartabcreator.com
Guitar Tab Creator is intended to store guitar tab created through the tool. It currently does not support in-line text editing. Any text you place in here will be lost. If you need to comment on your tab, please use the "Tab Notes" section located below.