Ella es tan Kubrick

Chords
01234567891011121314151617181920212223
E
B
G
D
A
E
B
0 1 2 3 4 5 6 7 8 9 10 11 12 13 14 15 16 17 18 19 20 21 22 23
(/) Slide Up  (\) Slide Down  (h) Hammer On  (p) Pull Off  (b) Bend (r) Release (v) Vibrato

Intro

G|--------------------------7-----------------------------------------------------
D|--------------------7--9-----9--7-----------------------------------------------
A|-----------------------------------9--8--7-----7--7--7-----7--9--7--10--10--12--
E|--0-----0--0--0-----------------------------------------------------------------
B|--------------------------------------------------------------------------------

Estrofa

G|-------------------------------------------------------
D|-------------------------------2-----------------------
A|--------------------------2h4--------------------------
E|--5--5-----5--5--3--5-------------0--0--0--0--0--3--3--
B|-------------------------------------------------------

							http://www.guitartabcreator.com
Instruments
{"strings":[[[".","_",".",".",".","_",".",".",7,".",".",".",".",".","_",".",".",".","_",".",".",".",".",".","."],[".","_",".",".",".","_",7,9,".",9,7,".",".",".","_",".",".",".","_",".",".",".",".",".","."],[".","_",".",".",".","_",".",".",".",".",".",9,8,7,"_",7,7,7,"_",7,9,7,10,10,12],[0,"_",0,0,0,"_",".",".",".",".",".",".",".",".","_",".",".",".","_",".",".",".",".",".","."],[".","_",".",".",".","_",".",".",".",".",".",".",".",".","_",".",".",".","_",".",".",".",".",".","."]],[[".",".","_",".",".",".",".","_",".",".",".",".",".",".",".",".",".",".","."],[".",".","_",".",".",".",".","_",".",".",".",2,".",".",".",".",".",".","."],[".",".","_",".",".",".",".","_",2,"h",4,".",".",".",".",".",".",".","."],[5,5,"_",5,5,3,5,"_",".",".",".",".",0,0,0,0,0,3,3],[".",".","_",".",".",".",".","_",".",".",".",".",".",".",".",".",".",".","."]]],"numberofstrings":5,"notes":["G","D","A","E","B"],"capo":0,"stringnotes":["G2","D2","A1","E1","B0"],"comments":["Intro","Estrofa"],"timing":[["W","W","W","W","W","W","W","W","W","W","W","W","W","W",null,"W","W","W",null,"W","W","W","W","W","W"],["W","W","W","W","W","W","W",null,"W",null,"W","W","W","W","W","W","W","W","W"]],"timingvisible":false,"tabcounter":19,"stave":1,"totalstaves":2,"instrument":"5bass","selectedtuning":"5bass","version":"13"}

Member for

5 days 23 hours
Picture
Submitted by Lucas Corbani on Fri, 2020-05-22 18:06