Sound will begin in 5 seconds

arpeggi minore 7

01234567891011121314151617181920212223
E
B
G
D
A
E
B
0 1 2 3 4 5 6 7 8 9 10 11 12 13 14 15 16 17 18 19 20 21 22 23
Song Science #1: How Pros Use 6 Chords to Write Hit Songs
(/) Slide Up  (\) Slide Down  (h) Hammer On  (p) Pull Off  (b) Bend (r) Release (v) Vibrato

Stave 1:

E|--------------------------0--5--
B|-----------------------3--------
G|-----------------2--5-----------
D|--------------3-----------------
A|--------3--5--------------------
E|--1--5--------------------------

Stave 2:

E|--------------------5--8--
B|-----------------6--------
G|-----------5--7-----------
D|--------7-----------------
A|--5--8--------------------
E|--------------------------

Stave 3:

E|---------------------------8--10--
B|-----------------------10---------
G|----------------7--10-------------
D|---------7--10--------------------
A|------8---------------------------
E|--10------------------------------

Stave 4:

E|----------------------------------10--
B|--------------------------10--13------
G|----------------------10--------------
D|--------------10--12------------------
A|----------12--------------------------
E|--10--13------------------------------

http://www.guitartabcreator.com
Guitar Tab Creator is intended to store guitar tab created through the tool. It currently does not support in-line text editing. Any text you place in here will be lost. If you need to comment on your tab, please use the "Tab Notes" section located below.