Sound will begin in 5 seconds

Round Midnight (arranged by Luca Gianquitto)

Chords
01234567891011121314151617181920212223
E
B
G
D
A
E
B
0 1 2 3 4 5 6 7 8 9 10 11 12 13 14 15 16 17 18 19 20 21 22 23
Song Science #1: How Pros Use 6 Chords to Write Hit Songs
(/) Slide Up  (\) Slide Down  (h) Hammer On  (p) Pull Off  (b) Bend (r) Release (v) Vibrato

Stave 1:

E|--6------------------------------------------------------------------------------------------------------
B|--7------------11--7--------------------------9/11---------------------12--10/11-----------------11--14--
G|--8--------10------------------8--------7--8--------13-------------11------------------------11----------
D|--8-----8-------------------8-----8----------------------------12------------------------13--------------
A|--6----------------------9---------------------------------11---------------------13---------------------
E|----------------------8----------------------------------------------------------------------------------

Stave 2:

E|-------------------------------------------------11--14--13--------------10/11--------------------------
B|--13-------------10--9--9--8-----------------12----------------------12------------------------------9--
G|----------11-----7---7--6--6-------------13----------------------13-----------------7/8--7--6-----------
D|-----------------7---9--6--8---------13----------------------11--------------------------------9/10-----
A|------11---------9---7--8--6-----11---------------------------------------------13----------------------
E|-----------------7------6-------------------------------------------------------------------------------

Stave 3:

E|-----
B|-----
G|-----
D|-----
A|--9--
E|-----

http://www.guitartabcreator.com
Guitar Tab Creator is intended to store guitar tab created through the tool. It currently does not support in-line text editing. Any text you place in here will be lost. If you need to comment on your tab, please use the "Tab Notes" section located below.