Sound will begin in 5 seconds

Rise and Fall

Chords
01234567891011121314151617181920212223
E
B
G
D
A
E
B
0 1 2 3 4 5 6 7 8 9 10 11 12 13 14 15 16 17 18 19 20 21 22 23
Song Science #1: How Pros Use 6 Chords to Write Hit Songs
(/) Slide Up  (\) Slide Down  (h) Hammer On  (p) Pull Off  (b) Bend (r) Release (v) Vibrato

Capo Fret 3

Stave 1:

E|--8/10-----10-----8/10-----10-----8/10-----10-------------------------------------
B|--------8------8--------8------8--------8------8--11--11--11------11--13--13--13--
G|--------------------------------------------------------------12------------------
D|----------------------------------------------------------------------------------
A|----------------------------------------------------------------------------------
E|----------------------------------------------------------------------------------

Stave 2:

E|---------------------------------------------------------------------
B|--12--13--13--12--10--11--11--10--5--6--6--8--8--8---10--10--10--10--
G|--12--12--12--12--10--10--10--10--5--5--5--8--8--10--10--10--12--10--
D|--12--12--12--12--10--10--10--10--5--5--5--8--8--8---10--10--10--10--
A|---------------------------------------------------------------------
E|---------------------------------------------------------------------

Stave 3:

E|--------------------------------------------------------------------------------------------------
B|--11--11--11--11--11--11--11--13--13--13--13--13--13--13--13--8--8--8--8--8--8--8--8--8--8--8--8--
G|--10--10--10--10--10--10--10--12--12--12--12--12--12--12--12--7--7--7--7--7--7--7--8--8--8--8--8--
D|--8---8---8---8---8---8---8---10--10--10--10--10--10--10--10--5--5--5--5--5--5--5--6--6--6--6--6--
A|--------------------------------------------------------------------------------------------------
E|--------------------------------------------------------------------------------------------------

Stave 4:

E|--8/10-----10-----10-----10-----8/10-----10-----10-----10----------------------------------------
B|--------8------8------8------8--------8------8------8------8--11--11--11--11--11--8--8--8--8--8--
G|-------------------------------------------------------------------------------------------------
D|-------------------------------------------------------------------------------------------------
A|-------------------------------------------------------------------------------------------------
E|-------------------------------------------------------------------------------------------------

http://www.guitartabcreator.com
Guitar Tab Creator is intended to store guitar tab created through the tool. It currently does not support in-line text editing. Any text you place in here will be lost. If you need to comment on your tab, please use the "Tab Notes" section located below.