Sound will begin in 5 seconds

Brobeback Mountain

Chords
01234567891011121314151617181920212223
E
B
G
D
A
E
B
0 1 2 3 4 5 6 7 8 9 10 11 12 13 14 15 16 17 18 19 20 21 22 23
Song Science #1: How Pros Use 6 Chords to Write Hit Songs
(/) Slide Up  (\) Slide Down  (h) Hammer On  (p) Pull Off  (b) Bend (r) Release (v) Vibrato

Stave 1:

E|--5p4--5p4--0-------------------------------
B|---------------0-----------0h2-----------0--
G|------------------------2-------------1-----
D|---------------------2-------------2--------
A|------------------0-------------------------
E|--------------------------------0-----------

Stave 2:

E|--------------------0--------------------------------------3--------------------------
B|-----2-----------0--0-----2-----------0--3--0-----------2--------------0--------------
G|--------------0-----1--------------0-----------------2--------------0--------------2--
D|--0--------0--------2--0--------0-----------------2--------------0--------0-----2-----
A|--------------------2--------------------------0-----------------------------0--------
E|--------3-----------0--------3--------------------------------3-----------------------

Stave 3:

E|--------------------------------3-----------------------------
B|-----------0--3--0-----------2--------------0--------0--------
G|--------0-----------------2--------------0--------0--------2--
D|-----0-----------------2--------------0--------0--------------
A|--------------------0-----------------------------------0-----
E|--3--------------------------------3--------------------------

Stave 4:

E|-----5--3--2--------------------------------------------------------
B|-----------------------2--------0--2-----3--------------------3-----
G|--------------------2--------2--------------0--------2-----2--------
D|--0--------------2--------2--------------------4--------0--------0--
A|--------------0-----------------------2-----------------------------
E|--------------------------------------------------2-----------------

Stave 5:

E|----------------------------2---------------------------0-------------------
B|-----------0-------------3-----3---------------------1-----1----------------
G|--------0-----2--0--0h2-----------2p0-------------2-----------2-------------
D|-----0--------------0------------------2/4-----2-----------------2/4-----0--
A|--------------------------------------------0--------------------0----------
E|--3-------------------------------------------------------------------3-----

Stave 6:

E|-----------------------------3p2-------------------------------------1--0--
B|-----0--------0-----------3-------3-----3----------------3--------3--------
G|--0-----0--------------2-------------2-----2p0--------3--------3-----------
D|-----------0-----0--0------------------------------3--------3--------------
A|------------------------------------------------1--------------------------
E|---------------------------------------------------------------------------

Stave 7:

E|-----------0-----------0--8--------------------------------------------------
B|--------1-----------1-----------------3--------3-----------------1--------1--
G|-----2-----------2-----------------3--------3-----3-----------2--------2-----
D|--------------2-----------------3--------3-----------3-----2--------2--------
A|--0--------------------------1--------------------------0--------------------
E|-----------------------------------------------------------------------------

Stave 8:

E|-----------------------1--0-----------0-----------0--3/5-----5-----3--0--
B|-----------3--------3--------------1-----------1-------------------------
G|--------3--------3--------------2-----------2----------------------------
D|-----3--------3--------------------------2-------------------------------
A|--1--------------------------0----------------------------------0--------
E|----------------------------------------------------------6--------------

Stave 9:

E|-----5----------------------0-------------------------3--------
B|-------------------------1-----1-------------------0-----0-----
G|----------------------2-----------2-------------0-----------0--
D|--0-----2/4--0-----2-----------------2/4-----0-----------------
A|----------------0----------------------------------------------
E|------------------------------------------3--------------------

Stave 10:

E|--------------------1-----0-----------
B|-----------0--1--3-----------1--1--0--
G|--------0-----------------------------
D|-----0--------------0-----------------
A|--------------0--2-----3--------------
E|--3-----------------------------3-----

Stave 11:

E|-----------------------------1-----------0-----0--
B|-----------0--1--3--------3-----------1-----1--0--
G|--------0--------------2-----------0--------------
D|-----0--------------0-----------------------------
A|--------------0--2--------------------------------
E|--3-----------------------------3--------------3--

Stave 12:

E|-----------------------------1-----------0-----------
B|-----------0--1--3--------3-----------1-----1--1--0--
G|--------0--------------2-----------0-----------------
D|-----0--------------0--------------------------------
A|--------------0--2--------------3--------------------
E|--3--------------------------------------------3-----

Stave 13:

E|-----------------------1-----------
B|-----------0--1--0-----------------
G|--------0-----------2-----0--0--0--
D|-----0--------------0--------------
A|--------------0-----------3--------
E|--3--------------3--------------3--

Stave 14:

E|--
B|--
G|--
D|--
A|--
E|--

http://www.guitartabcreator.com
Guitar Tab Creator is intended to store guitar tab created through the tool. It currently does not support in-line text editing. Any text you place in here will be lost. If you need to comment on your tab, please use the "Tab Notes" section located below.