Mexicali Rose

Chords

01234567891011121314151617181920212223
E
B
G
D
A
E
B
0 1 2 3 4 5 6 7 8 9 10 11 12 13 14 15 16 17 18 19 20 21 22 23
(/) Slide Up  (\) Slide Down  (h) Hammer On  (p) Pull Off  (b) Bend (r) Release (v) Vibrato

Stave 1:

E|-------------------------7--5--4--5--4----------------------------------------5-----5--5--4--------------------------------
B|-------4--5--7--5--4--5-----------------6/7--5--5--7--5-----------------5--7-----7-----7--5--5--6--7--5--7--8--9--7--5-----
G|--6h7----------------------------------------------------8--7--4--6--7--------------------------------------------------6--
D|---------------------------------------------------------------------------------------------------------------------------
A|---------------------------------------------------------------------------------------------------------------------------
E|---------------------------------------------------------------------------------------------------------------------------

Stave 2:

E|--------------------------------7--5--5--6--7--5--7/9\7--7--5--------4--5--4--5--6--7--7--5--7/9--------------------------
B|-----------------------5--4--5--5--5---------------------------7--7-------------------------------5--4--5--6--7--7--6--7--
G|--------------4--5--6-----------6--6---------------------------7----------------------------------------------------------
D|-----4--6--7--------------------7--7---------------------------7----------------------------------------------------------
A|--7-----------------------------------------------------------------------------------------------------------------------
E|--------------------------------------------------------------------------------------------------------------------------

Stave 3:

E|--------9--5--------------------------------------7--5--4--5--4-------------------------
B|--8--9-----5-----------------------5-----4--5--5--5--5-----------6/7--5--5--7--5--------
G|-----------6--------------4--5--6-----6--5--6-----6--6----------------------------8--7--
D|-----------7-----4--6--7--------------------------7--7----------------------------------
A|--------------7-------------------------------------------------------------------------
E|----------------------------------------------------------------------------------------

Stave 4:

E|--------------------------------5-----5--4-------------------------------
B|--------------------------5--7-----7--7--5--5--6--7--7--6--7--8--9/5-----
G|--7--7--7--6--4--4--6--7----------------------------------------------6--
D|-------------------------------------------------------------------------
A|-------------------------------------------------------------------------
E|-------------------------------------------------------------------------

Stave 5:

E|--------------------------------------------5--7--5--5--6--7--5--7/9\7--5--------5--------
B|-----------------------5-----------------5-----5--5------------------------8--7-----7-----
G|--------------4--5--6-----6--5--6--5--6--------6--6------------------------------------7--
D|-----4--6--7-----------------------------------7--7---------------------------------------
A|--7---------------------------------------------------------------------------------------
E|------------------------------------------------------------------------------------------

Stave 6:

E|--5--4--5--6--7--6--7--8--9-----------------------------9-----------5--
B|-----------------------------5--4--5--6--7--6--7--8--9-----------5--5--
G|--------------------------------------------------------------6-----6--
D|-----------------------------------------------------------7--------7--
A|-----------------------------------------------------------------------
E|-----------------------------------------------------------------------

							http://www.guitartabcreator.com
Instruments
{"strings":[[[".",".",".",".",".",".",".",".",".",7,5,4,5,4,".",".",".",".",".",".",".",".",".",".",".",".",".",".",5,".",5,5,4,".",".",".",".",".",".",".",".",".","."],[".",".",".",4,5,7,5,4,5,".",".",".",".",".",6,"/",7,5,5,7,5,".",".",".",".",".",5,7,".",7,".",7,5,5,6,7,5,7,8,9,7,5,"."],[6,"h",7,".",".",".",".",".",".",".",".",".",".",".",".",".",".",".",".",".",".",8,7,4,6,7,".",".",".",".",".",".",".",".",".",".",".",".",".",".",".",".",6],[".",".",".",".",".",".",".",".",".",".",".",".",".",".",".",".",".",".",".",".",".",".",".",".",".",".",".",".",".",".",".",".",".",".",".",".",".",".",".",".",".",".","."],[".",".",".",".",".",".",".",".",".",".",".",".",".",".",".",".",".",".",".",".",".",".",".",".",".",".",".",".",".",".",".",".",".",".",".",".",".",".",".",".",".",".","."],[".",".",".",".",".",".",".",".",".",".",".",".",".",".",".",".",".",".",".",".",".",".",".",".",".",".",".",".",".",".",".",".",".",".",".",".",".",".",".",".",".",".","."]],[[".",".",".",".",".",".",".",".",".",".",7,5,5,6,7,5,7,"/",9,"\\",7,7,5,".",".",4,5,4,5,6,7,7,5,7,"/",9,".",".",".",".",".",".",".","."],[".",".",".",".",".",".",".",5,4,5,5,5,".",".",".",".",".",".",".",".",".",".",".",7,7,".",".",".",".",".",".",".",".",".",".",".",5,4,5,6,7,7,6,7],[".",".",".",".",4,5,6,".",".",".",6,6,".",".",".",".",".",".",".",".",".",".",".",7,".",".",".",".",".",".",".",".",".",".",".",".",".",".",".",".",".",".",".","."],[".",4,6,7,".",".",".",".",".",".",7,7,".",".",".",".",".",".",".",".",".",".",".",7,".",".",".",".",".",".",".",".",".",".",".",".",".",".",".",".",".",".",".","."],[7,".",".",".",".",".",".",".",".",".",".",".",".",".",".",".",".",".",".",".",".",".",".",".",".",".",".",".",".",".",".",".",".",".",".",".",".",".",".",".",".",".",".","."],[".",".",".",".",".",".",".",".",".",".",".",".",".",".",".",".",".",".",".",".",".",".",".",".",".",".",".",".",".",".",".",".",".",".",".",".",".",".",".",".",".",".",".","."]],[[".",".",9,5,".",".",".",".",".",".",".",".",".",".",".",".",7,5,4,5,4,".",".",".",".",".",".",".",".","."],[8,9,".",5,".",".",".",".",".",".",".",5,".",4,5,5,5,5,".",".",".",6,"/",7,5,5,7,5,".","."],[".",".",".",6,".",".",".",".",4,5,6,".",6,5,6,".",6,6,".",".",".",".",".",".",".",".",".",".",8,7],[".",".",".",7,".",4,6,7,".",".",".",".",".",".",".",".",7,7,".",".",".",".",".",".",".",".",".",".",".","."],[".",".",".",".",7,".",".",".",".",".",".",".",".",".",".",".",".",".",".",".",".",".",".",".",".",".",".",".",".","."],[".",".",".",".",".",".",".",".",".",".",".",".",".",".",".",".",".",".",".",".",".",".",".",".",".",".",".",".",".","."]],[[".",".",".",".",".",".",".",".",".",".",5,".",5,4,".",".",".",".",".",".",".",".",".",".","."],[".",".",".",".",".",".",".",".",5,7,".",7,7,5,5,6,7,7,6,7,8,9,"/",5,"."],[7,7,7,6,4,4,6,7,".",".",".",".",".",".",".",".",".",".",".",".",".",".",".",".",6],[".",".",".",".",".",".",".",".",".",".",".",".",".",".",".",".",".",".",".",".",".",".",".",".","."],[".",".",".",".",".",".",".",".",".",".",".",".",".",".",".",".",".",".",".",".",".",".",".",".","."],[".",".",".",".",".",".",".",".",".",".",".",".",".",".",".",".",".",".",".",".",".",".",".",".","."]],[[".",".",".",".",".",".",".",".",".",".",".",".",".",".",5,7,5,5,6,7,5,7,"/",9,"\\",7,5,".",".",5,".","."],[".",".",".",".",".",".",".",5,".",".",".",".",".",5,".",5,5,".",".",".",".",".",".",".",".",".",".",8,7,".",7,"."],[".",".",".",".",4,5,6,".",6,5,6,5,6,".",".",6,6,".",".",".",".",".",".",".",".",".",".",".",".",".",".",7],[".",4,6,7,".",".",".",".",".",".",".",".",".",".",".",7,7,".",".",".",".",".",".",".",".",".",".",".",".",".",".","."],[7,".",".",".",".",".",".",".",".",".",".",".",".",".",".",".",".",".",".",".",".",".",".",".",".",".",".",".",".",".",".","."],[".",".",".",".",".",".",".",".",".",".",".",".",".",".",".",".",".",".",".",".",".",".",".",".",".",".",".",".",".",".",".","."]],[[5,4,5,6,7,6,7,8,9,".",".",".",".",".",".",".",".",".",9,".",".",".",5],[".",".",".",".",".",".",".",".",".",5,4,5,6,7,6,7,8,9,".",".",".",5,5],[".",".",".",".",".",".",".",".",".",".",".",".",".",".",".",".",".",".",".",".",6,".",6],[".",".",".",".",".",".",".",".",".",".",".",".",".",".",".",".",".",".",".",7,".",".",7],[".",".",".",".",".",".",".",".",".",".",".",".",".",".",".",".",".",".",".",".",".",".","."],[".",".",".",".",".",".",".",".",".",".",".",".",".",".",".",".",".",".",".",".",".",".","."]]],"numberofstrings":6,"notes":["E","B","G","D","A","E","B"],"capo":0,"stringnotes":["E4","B3","G3","D3","A2","E2"],"comments":["Stave 1:","Stave 2:","Stave 3:","Stave 4:","Stave 5:","Stave 6:"],"timing":[[null,null,null,null,null,null,null,null,null,null,null,null,null,null,null,null,null,null,null,null,null,null,null,null,null,null,null,null,null,null,null,null,null,null,null,null,null,null,null,null,null,null,null],[null,null,null,null,null,null,null,null,null,null,null,null,null,null,null,null,null,null,null,null,null,null,null,null,null,null,null,null,null,null,null,null,null,null,null,null,null,null,null,null,null,null,null,null,null,null],[null,null,null,null,null,null,null,null,null,null,null,null,null,null,null,null,null,null,null,null,null,null,null,null,null,null,null,null,null,null],[null,null,null,null,null,null,null,null,null,null,null,null,null,null,null,null,null,null,null,null,null,null,null,null,null],[null,null,null,null,null,null,null,null,null,null,null,null,null,null,null,null,null,null,null,null,null,null,null,null,null,null,null,null,null,null,null,null],[null,null,null,null,null,null,null,null,null,null,null,null,null,null,null,null,null,null,null,null,null,null,null]],"timingvisible":false,"tabcounter":22,"stave":5,"totalstaves":6,"instrument":"6guitar","selectedtuning":"6_standard","version":"13"}

Member for

1 week 6 days
Submitted by LP on Sat, 2020-11-21 15:03