Sound will begin in 5 seconds

1st tab

Chords
01234567891011121314151617181920212223
E
B
G
D
A
E
B
0 1 2 3 4 5 6 7 8 9 10 11 12 13 14 15 16 17 18 19 20 21 22 23
Song Science #1: How Pros Use 6 Chords to Write Hit Songs
(/) Slide Up  (\) Slide Down  (h) Hammer On  (p) Pull Off  (b) Bend (r) Release (v) Vibrato

Stave 1:

E|------------------------------------------------------------------------------
B|------------------------------------------------------------------------------
G|------------------------------------------------------------------------------
D|--0--5--7--8--0--x--5--7--0--8--10--8--7--0--5--7--8--0--3--3--3-----1--1--1--
A|--0--5--7--8--0--x--5--7--0--8--10--8--7--0--5--7--8--0--3--3--3-----1--1--1--
E|--0--5--7--8--0--x--5--7--0--8--10--8--7--0--5--7--8--0--3--3--3-----1--1--1--

Stave 2:

E|------------------------------------------------------------------------------------
B|------------------------------------------------------------------------------------
G|------------------------------------------------------------------------------------
D|--0--5--7--8--0--x--5--7--0--8--10--8--7--0--5--7--8--0--x--3--3--3--x--1--1--1--1--
A|--0--5--7--8--0--x--5--7--0--8--10--8--7--0--5--7--8--0--x--3--3--3--x--1--1--1--1--
E|--0--5--7--8--0--x--5--7--0--8--10--8--7--0--5--7--8--0--x--3--3--3--x--1--1--1--1--

Stave 3:

E|--------------------------------------------------------------------------------------------------
B|--------------------------------------------------------------------------------------------------
G|--------------------------------------------------------------------------------------------------
D|--0--0--x--5--7--8--0--x--0--5--7--8--10--8--7--x--x--0--5--7--8--10--10--x--3--3--3--x--1--1--1--
A|--0--0--x--5--7--8--0--x--0--5--7--8--10--8--7--x--x--0--5--7--8--10--10--x--3--3--3--x--1--1--1--
E|--0--0--x--5--7--8--0--x--0--5--7--8--10--8--7--x--x--0--5--7--8--10--10--x--3--3--3--x--1--1--1--

Stave 4:

E|---------------------------------------------------------------
B|---------------------------------------------------------------
G|---------------------------------------------------------------
D|--3--0--0--3--0--0--3--0--1/4--3--0--0--3--0--0--3--0/6-----1--
A|--3--0--0--3--0--0--3--0--1----3--0--0--3--0--0--3--0-------1--
E|--3--0--0--3--0--0--3--0--1----3--0--0--3--0--0--3--0-------1--

Stave 5:

E|----------------------------------------------------------------------------
B|-----------------------------------3--------------------------3--------3/4--
G|--------------------------------2--------------------------2--------2-------
D|-----0-----0--x--x--x--1--0--0-----------x--x--x--0--1--0--------0----------
A|-----0-----0--x--x--x--1--0--------------x--x--x--0--1----------------------
E|-----0-----0--x--x--x--1--0--------------x--x--x--0--1----------------------

Stave 6:

E|------------------------------------------------------------------------5--5--3--1--0--0--------
B|--4--3-----3-----2-----0--2--3--2-----0--0--2--3--2--7-----9b9r9--7--2--------------------3-----
G|--------4-----4---------------------------------------------------------------------------------
D|------------------------------------------------------------------------------------------------
A|------------------------------------------------------------------------------------------------
E|------------------------------------------------------------------------------------------------

Stave 7:

E|--------------------------
B|-----------------------3--
G|--2--0-----------2--------
D|--------3--2--0-----------
A|--------------------------
E|--------------------------

http://www.guitartabcreator.com
Guitar Tab Creator is intended to store guitar tab created through the tool. It currently does not support in-line text editing. Any text you place in here will be lost. If you need to comment on your tab, please use the "Tab Notes" section located below.