Sound will begin in 5 seconds

I will return

01234567891011121314151617181920212223
E
B
G
D
A
E
B
0 1 2 3 4 5 6 7 8 9 10 11 12 13 14 15 16 17 18 19 20 21 22 23
Song Science #1: How Pros Use 6 Chords to Write Hit Songs
(/) Slide Up  (\) Slide Down  (h) Hammer On  (p) Pull Off  (b) Bend (r) Release (v) Vibrato

Stave 1:

E|--------------------------------------------------------17-----13---------------------------
B|--15b17--17b15/13--------12b13-----13b12-----12--10--------------------17--15--13-----------
G|-------------------------------------------------------------------14-----------------------
D|--------------------------------------------------------------------------------------------
A|--------------------------------------------------------------------------------------------
E|--------------------------------------------------------------------------------------------

Stave 2:

E|--------------------------------------------------------
B|--------------------------------------------------------
G|-------5-------5---------------------5-------5----------
D|------------------2p0---------------------------2p0-----
A|--3h5-----3h5----------3--------3h5-----3h5----------3--
E|--------------------------------------------------------

Stave 3:

E|----------------------------------------------------------------------------10\15--15--
B|---------------------------------------------------------------------------------------
G|--12--------12h14--12--12--12--------12\17--17--17\19--19--19\21--19-------------------
D|---------------------------------------------------------------------------------------
A|---------------------------------------------------------------------------------------
E|---------------------------------------------------------------------------------------

Stave 4:

E|------------------------------------------------------------------------------------------------
B|--------8---------8---------8---------8---------8--------8--------8--------8--------8--------8--
G|-----7---------7---------7---------7---------7--------7--------7--------7--------7--------7-----
D|-----------10--------10--------10--------10--------9--------9--------9--------9--------9--------
A|------------------------------------------------------------------------------------------------
E|------------------------------------------------------------------------------------------------

Stave 5:

E|--15--15--------------15--15--15--15--15--15/13--13--13/12--12/10--10--
B|-----------------------------------------------------------------------
G|-----------------------------------------------------------------------
D|-----------------------------------------------------------------------
A|-----------------------------------------------------------------------
E|-----------------------------------------------------------------------

http://www.guitartabcreator.com
Guitar Tab Creator is intended to store guitar tab created through the tool. It currently does not support in-line text editing. Any text you place in here will be lost. If you need to comment on your tab, please use the "Tab Notes" section located below.