The end of a rope

01234567891011121314151617181920212223
E
B
G
D
A
E
B
0 1 2 3 4 5 6 7 8 9 10 11 12 13 14 15 16 17 18 19 20 21 22 23
(/) Slide Up  (\) Slide Down  (h) Hammer On  (p) Pull Off  (b) Bend (r) Release (v) Vibrato

x3

E|-------------------------------
B|-------------------------------
G|-------------------------------
D|-----3--5--3--5--3/2--2--3--2--
A|-------------------------------
D|--0----------------------------

x2

E|----------------------------------
B|----------------------------------
G|----------------------------------
D|-----3--5--3--5--3--5/6--6--5--3--
A|----------------------------------
D|--0-------------------------------

Stave 3:

E|------------------------------------------------------------------------------
B|------------------------------------------------------------------------------
G|------------------------------------------------------------------------------
D|-----3--5--3--5--3/2--2--3--2-----3--5--3--5--3/2--2--3--2--3--2--3--2-----3--
A|------------------------------------------------------------------------------
D|--0----------------------------0----------------------------------------------

Stave 4:

E|-------------------------------------------------
B|-------------------------------------------------
G|--7-----7--7-----7--7--7-----9--9--9-----10--10--
D|--7-----7--7-----7--7--7-----9--9--9-----10--10--
A|--5-----5--5-----5--5--5-----7--7--7-----8---8---
D|-------------------------------------------------

Stave 5:

E|--------------------------------------------
B|--------------------------------------------
G|--7-----7--7-----7--7--7-----8--8-----5--5--
D|--7-----7--7-----7--7--7-----8--8-----5--5--
A|--5-----5--5-----5--5--5-----6--6-----3--3--
D|--------------------------------------------

x2

E|---------------------------------------------
B|---------------------------------------------
G|--7-----7--7--7--7--7--7-12--12--12--13--12--
D|--7-----7--7--7--7--7--7-12--12--12--13--12--
A|--5-----5--5--5--5--5--5-10--10--10--11--10--
D|---------------------------------------------

Stave 7:

E|-----------------------------------------------------------------
B|-----------------------------------------------------------------
G|--7-----7--7--7--7--7--7-12--12--12--13--12--13--12--13--12--13--
D|--7-----7--7--7--7--7--7-12--12--12--13--12--13--12--13--12--13--
A|--5-----5--5--5--5--5--5-10--10--10--11--10--11--10--11--10--11--
D|-----------------------------------------------------------------

x3

E|---------------------------------
B|---------------------------------
G|---------------------------------
D|-----------------9--7--9--10--9--
A|--0--7-----0--7------------------
D|---------------------------------

x2

E|--------------------------------
B|--------------------------------
G|--------------------------7-----
D|-----------------9--7--9-----9--
A|--0--7-----0--7-----------------
D|--------------------------------

							http://www.guitartabcreator.com
Chords

Instruments
{"strings":[[[".",".",".",".",".",".",".",".",".",".","."],[".",".",".",".",".",".",".",".",".",".","."],[".",".",".",".",".",".",".",".",".",".","."],[".",3,5,3,5,3,"/",2,2,3,2],[".",".",".",".",".",".",".",".",".",".","."],[0,".",".",".",".",".",".",".",".",".","."]],[[".",".",".",".",".",".",".",".",".",".",".","."],[".",".",".",".",".",".",".",".",".",".",".","."],[".",".",".",".",".",".",".",".",".",".",".","."],[".",3,5,3,5,3,5,"/",6,6,5,3],[".",".",".",".",".",".",".",".",".",".",".","."],[0,".",".",".",".",".",".",".",".",".",".","."]],[[".",".",".",".",".",".",".",".",".",".",".",".",".",".",".",".",".",".",".",".",".",".",".",".",".",".",".","."],[".",".",".",".",".",".",".",".",".",".",".",".",".",".",".",".",".",".",".",".",".",".",".",".",".",".",".","."],[".",".",".",".",".",".",".",".",".",".",".",".",".",".",".",".",".",".",".",".",".",".",".",".",".",".",".","."],[".",3,5,3,5,3,"/",2,2,3,2,".",3,5,3,5,3,"/",2,2,3,2,3,2,3,2,".",3],[".",".",".",".",".",".",".",".",".",".",".",".",".",".",".",".",".",".",".",".",".",".",".",".",".",".",".","."],[0,".",".",".",".",".",".",".",".",".",".",0,".",".",".",".",".",".",".",".",".",".",".",".",".",".",".","."]],[[".",".",".",".",".",".",".",".",".",".",".",".",".",".","."],[".",".",".",".",".",".",".",".",".",".",".",".",".",".","."],[7,".",7,7,".",7,7,7,".",9,9,9,".",10,10],[7,".",7,7,".",7,7,7,".",9,9,9,".",10,10],[5,".",5,5,".",5,5,5,".",7,7,7,".",8,8],[".",".",".",".",".",".",".",".",".",".",".",".",".",".","."]],[[".",".",".",".",".",".",".",".",".",".",".",".",".","."],[".",".",".",".",".",".",".",".",".",".",".",".",".","."],[7,".",7,7,".",7,7,7,".",8,8,".",5,5],[7,".",7,7,".",7,7,7,".",8,8,".",5,5],[5,".",5,5,".",5,5,5,".",6,6,".",3,3],[".",".",".",".",".",".",".",".",".",".",".",".",".","."]],[[".",".",".",".",".",".",".",".",".",".",".",".",".","."],[".",".",".",".",".",".",".",".",".",".",".",".",".","."],[7,".",7,7,7,7,7,7,"/",12,12,12,13,12],[7,".",7,7,7,7,7,7,"/",12,12,12,13,12],[5,".",5,5,5,5,5,5,"/",10,10,10,11,10],[".",".",".",".",".",".",".",".",".",".",".",".",".","."]],[[".",".",".",".",".",".",".",".",".",".",".",".",".",".",".",".",".",".","."],[".",".",".",".",".",".",".",".",".",".",".",".",".",".",".",".",".",".","."],[7,".",7,7,7,7,7,7,"/",12,12,12,13,12,13,12,13,12,13],[7,".",7,7,7,7,7,7,"/",12,12,12,13,12,13,12,13,12,13],[5,".",5,5,5,5,5,5,"/",10,10,10,11,10,11,10,11,10,11],[".",".",".",".",".",".",".",".",".",".",".",".",".",".",".",".",".",".","."]],[[".",".",".",".",".",".",".",".",".","."],[".",".",".",".",".",".",".",".",".","."],[".",".",".",".",".",".",".",".",".","."],[".",".",".",".",".",9,7,9,10,9],[0,7,".",0,7,".",".",".",".","."],[".",".",".",".",".",".",".",".",".","."]],[[".",".",".",".",".",".",".",".",".","."],[".",".",".",".",".",".",".",".",".","."],[".",".",".",".",".",".",".",".",7,"."],[".",".",".",".",".",9,7,9,".",9],[0,7,".",0,7,".",".",".",".","."],[".",".",".",".",".",".",".",".",".","."]]],"numberofstrings":6,"notes":["E","B","G","D","A","D"],"capo":0,"stringnotes":["E3","B2","G2","D2","A1","D1"],"comments":["x3","x2","Stave 3:","Stave 4:","Stave 5:","x2","Stave 7:","x3","x2"],"timing":[[null,"W","W","W","W","W","W",null,"W","W","W","W"],[null,"W","W","W","W","W","W","W",null,"W","W","W","W"],[null,"W","W","W","W","W","W",null,"W","W","W","W","W","W","W","W","W","W",null,"W","W","W","W","W","W","W","W",null,"W"],[null,"W",null,"W","W",null,"W","W","W",null,"W","W","W",null,"W","W"],[null,"W","W","W","W",null,"W","W","W",null,"W","W",null,"W","W"],[null,"W",null,"W","W","W","W","W","W",null,"W","W","W","W","W"],[null,"W",null,"W","W","W","W","W","W",null,"W","W","W","W","W","W","W","W","W","W"],[null,"W","W",null,"W","W","W","W","W","W","W"],[null,"W","W",null,"W","W","W","W","W","W","W"]],"timingvisible":false,"tabcounter":10,"stave":8,"totalstaves":9,"instrument":"6guitar","selectedtuning":"Drop D","version":"13"}

Member for

3 months 3 weeks
Submitted by LordVonSteiner on Fri, 2021-01-15 10:10