PG

Chords

01234567891011121314151617181920212223
E
B
G
D
A
E
B
0 1 2 3 4 5 6 7 8 9 10 11 12 13 14 15 16 17 18 19 20 21 22 23
(/) Slide Up  (\) Slide Down  (h) Hammer On  (p) Pull Off  (b) Bend (r) Release (v) Vibrato

Stave 1:

E|--3--5--6--8--10--10--10--10--11--8--8--8--8------8--8--8--8--10-------------6--5--6--8--10--10--10--10--11--8--8--8--8------8--8--8--8--10-------------6--5--3-----------10--
B|----------------------------------------------10------------------11--10--8----------------------------------------------10------------------11--10--8-----------6--8--8------
G|------------------------------------------------------------------------------------------------------------------------------------------------------------------------------
D|------------------------------------------------------------------------------------------------------------------------------------------------------------------------------
A|------------------------------------------------------------------------------------------------------------------------------------------------------------------------------
E|------------------------------------------------------------------------------------------------------------------------------------------------------------------------------

Stave 2:

E|--6--------5-----3-----10--6-----------------5--------10--12--13--15----------20--
B|-----8--8-----6-----8---------8-----------8-----6-------------------------15------
G|---------------------------------7-----7-----------5------------------15----------
D|------------------------------------8---------------------------------------------
A|----------------------------------------------------------------------------------
E|----------------------------------------------------------------------------------

							http://www.guitartabcreator.com
Instruments
{"strings":[[[3,5,6,8,10,10,10,10,11,8,8,8,8,".",8,8,8,8,10,".",".",".",6,5,6,8,10,10,10,10,11,8,8,8,8,".",8,8,8,8,10,".",".",".",6,5,3,".",".",".",10],[".",".",".",".",".",".",".",".",".",".",".",".",".",10,".",".",".",".",".",11,10,8,".",".",".",".",".",".",".",".",".",".",".",".",".",10,".",".",".",".",".",11,10,8,".",".",".",6,8,8,"."],[".",".",".",".",".",".",".",".",".",".",".",".",".",".",".",".",".",".",".",".",".",".",".",".",".",".",".",".",".",".",".",".",".",".",".",".",".",".",".",".",".",".",".",".",".",".",".",".",".",".","."],[".",".",".",".",".",".",".",".",".",".",".",".",".",".",".",".",".",".",".",".",".",".",".",".",".",".",".",".",".",".",".",".",".",".",".",".",".",".",".",".",".",".",".",".",".",".",".",".",".",".","."],[".",".",".",".",".",".",".",".",".",".",".",".",".",".",".",".",".",".",".",".",".",".",".",".",".",".",".",".",".",".",".",".",".",".",".",".",".",".",".",".",".",".",".",".",".",".",".",".",".",".","."],[".",".",".",".",".",".",".",".",".",".",".",".",".",".",".",".",".",".",".",".",".",".",".",".",".",".",".",".",".",".",".",".",".",".",".",".",".",".",".",".",".",".",".",".",".",".",".",".",".",".","."]],[[6,".",".",5,".",3,".",10,6,".",".",".",".",".",5,".",".",10,12,13,15,".",".",20],[".",8,8,".",6,".",8,".",".",8,".",".",".",8,".",6,".",".",".",".",".",".",15,"."],[".",".",".",".",".",".",".",".",".",".",7,".",7,".",".",".",5,".",".",".",".",15,".","."],[".",".",".",".",".",".",".",".",".",".",".",8,".",".",".",".",".",".",".",".",".",".",".","."],[".",".",".",".",".",".",".",".",".",".",".",".",".",".",".",".",".",".",".",".",".",".",".","."],[".",".",".",".",".",".",".",".",".",".",".",".",".",".",".",".",".",".",".",".",".",".",".","."]]],"numberofstrings":6,"notes":["E","B","G","D","A","E","B"],"capo":0,"stringnotes":["E4","B3","G3","D3","A2","E2"],"comments":["Stave 1:","Stave 2:"],"timing":[["W","W","W","W","W","W","W","W","W","W","W","W","W","W","W","W","W","W","W","W","W","W","W","W","W","W","W","W","W","W","W","W","W","W","W","W","W","W","W","W","W","W","W","W","W","W","W","W","W","W","W"],["W","W","W","W","W","W","W","W","W","W","W","W","W","W","W","W","W","W","W","W","W","W","W","W"]],"timingvisible":false,"tabcounter":24,"stave":1,"totalstaves":2,"instrument":"6guitar","selectedtuning":"6_standard","version":"13"}

Member for

1 week 1 day
Submitted by lopes9595 on Mon, 2020-06-29 09:25