wii shop theme tabs

01234567891011121314151617181920212223
E
B
G
D
A
E
B
0 1 2 3 4 5 6 7 8 9 10 11 12 13 14 15 16 17 18 19 20 21 22 23
(/) Slide Up  (\) Slide Down  (h) Hammer On  (p) Pull Off  (b) Bend (r) Release (v) Vibrato

Stave 1:

E|-----------------------------------------------------------------------------------------------------------------------------------------------------
B|--3--3--3--3--3-----3--3--3--3--3-----3--3--3--3--3-----------------------------------------------------------3--3--1--1--0--0-----------3--3--1--1--
G|--------------------------------------------------------------2--2--0--0--------------2--2--0--0--------------------------------2--2-----------------
D|--------------------------------------------------------------------------4--4--2--2--------------4--4--2--2-----------------------------------------
A|-----------------------------------------------------------------------------------------------------------------------------------------------------
E|-----------------------------------------------------------------------------------------------------------------------------------------------------

Stave 2:

E|-----------------------------------------------------------------------------------------------------0--0-----------2--2--0--0--------------2--2--0--0--
B|--------------------------------------------------------0-----1-----0--------0-----------------------------4--4--4--------------4--4--2--2--------------
G|--3--3--2--2--0--------------2--------------------0--2--------------------------3-----------3--2--------------------------------------------------------
D|--------------------4-----4-----2--------1--2--4-----------------------2--2-----------1--1--------------------------------------------------------------
A|--------------------------------------------------------------------------------------------------------------------------------------------------------
E|--------------------------------------------------------------------------------------------------------------------------------------------------------

Stave 3:

E|-----------------2--2--0--0--
B|--4--4--2--2-----------------
G|-----------------------------
D|-----------------------------
A|-----------------------------
E|-----------------------------

							http://www.guitartabcreator.com
Chords

Instruments
{"strings":[[[".",".",".",".",".","_",".",".",".",".",".","_",".",".",".",".",".","_","_","_",".",".",".",".",".",".",".",".",".",".",".",".",".",".",".",".",".",".",".",".",".",".",".",".","_",".",".",".","."],[3,3,3,3,3,"_",3,3,3,3,3,"_",3,3,3,3,3,"_","_","_",".",".",".",".",".",".",".",".",".",".",".",".",".",".",".",".",3,3,1,1,0,0,".",".","_",3,3,1,1],[".",".",".",".",".","_",".",".",".",".",".","_",".",".",".",".",".","_","_","_",2,2,0,0,".",".",".",".",2,2,0,0,".",".",".",".",".",".",".",".",".",".",2,2,"_",".",".",".","."],[".",".",".",".",".","_",".",".",".",".",".","_",".",".",".",".",".","_","_","_",".",".",".",".",4,4,2,2,".",".",".",".",4,4,2,2,".",".",".",".",".",".",".",".","_",".",".",".","."],[".",".",".",".",".","_",".",".",".",".",".","_",".",".",".",".",".","_","_","_",".",".",".",".",".",".",".",".",".",".",".",".",".",".",".",".",".",".",".",".",".",".",".",".","_",".",".",".","."],[".",".",".",".",".","_",".",".",".",".",".","_",".",".",".",".",".","_","_","_",".",".",".",".",".",".",".",".",".",".",".",".",".",".",".",".",".",".",".",".",".",".",".",".","_",".",".",".","."]],[[".",".",".",".",".","_",".","_",".",".",".","_","_",".",".",".",".",".",".","_",".","_",".",".",".",".",".","_",".",".",".",".","_",0,0,".",".",".",2,2,0,0,".",".",".",".",2,2,0,0],[".",".",".",".",".","_",".","_",".",".",".","_","_",".",".",".",".",".",0,"_",1,"_",0,".",".",0,".","_",".",".",".",".","_",".",".",4,4,4,".",".",".",".",4,4,2,2,".",".",".","."],[3,3,2,2,0,"_",".","_",".",2,".","_","_",".",".",".",0,2,".","_",".","_",".",".",".",".",3,"_",".",".",3,2,"_",".",".",".",".",".",".",".",".",".",".",".",".",".",".",".",".","."],[".",".",".",".",".","_",4,"_",4,".",2,"_","_",1,2,4,".",".",".","_",".","_",".",2,2,".",".","_",1,1,".",".","_",".",".",".",".",".",".",".",".",".",".",".",".",".",".",".",".","."],[".",".",".",".",".","_",".","_",".",".",".","_","_",".",".",".",".",".",".","_",".","_",".",".",".",".",".","_",".",".",".",".","_",".",".",".",".",".",".",".",".",".",".",".",".",".",".",".",".","."],[".",".",".",".",".","_",".","_",".",".",".","_","_",".",".",".",".",".",".","_",".","_",".",".",".",".",".","_",".",".",".",".","_",".",".",".",".",".",".",".",".",".",".",".",".",".",".",".",".","."]],[[".",".",".",".","_",2,2,0,0],[4,4,2,2,"_",".",".",".","."],[".",".",".",".","_",".",".",".","."],[".",".",".",".","_",".",".",".","."],[".",".",".",".","_",".",".",".","."],[".",".",".",".","_",".",".",".","."]]],"numberofstrings":6,"notes":["E","B","G","D","A","E","B"],"capo":0,"stringnotes":["E4","B3","G3","D3","A2","E2"],"comments":["Stave 1:","Stave 2:","Stave 3:"],"timing":[["W","W","W","W","W","W","W","W","W","W","W",null,"W","W","W","W","W",null,null,null,"W","W","W","W","W","W","W","W","W","W","W","W","W","W","W","W","W","W","W","W","W","W","W","W",null,"W","W","W","W"],["W","W","W","W","W",null,"W","W","W","W","W",null,null,"W","W","W","W","W","W","W","W",null,"W","W","W","W","W","W","W","W","W","W",null,"W","W","W","W","W","W","W","W","W","W","W","W","W","W","W","W","W"],["W","W","W","W","W","W","W","W","W"]],"timingvisible":false,"tabcounter":9,"stave":2,"totalstaves":3,"instrument":"6guitar","selectedtuning":"6_standard","version":"13"}

Member for

2 weeks 5 days
Submitted by lolmater on Tue, 2021-02-23 11:29