Sound will begin in 5 seconds

Megaman - Flashman

01234567891011121314151617181920212223
E
B
G
D
A
E
B
0 1 2 3 4 5 6 7 8 9 10 11 12 13 14 15 16 17 18 19 20 21 22 23
Song Science #1: How Pros Use 6 Chords to Write Hit Songs
(/) Slide Up  (\) Slide Down  (h) Hammer On  (p) Pull Off  (b) Bend (r) Release (v) Vibrato

Stave 1:

E|--------------------|--------------------------|--2--2--2--3--2--2--2--3--|--2--2--2--3--7--7--5--5-----
B|--------0--3--2-----|--1--0--------------------|--------------------------|--------------------------7--
G|-----0-----------2--|--------0--1--------------|--------------------------|-----------------------------
D|--2-----------------|--------------4--2--0--2--|--------------------------|-----------------------------
A|--------------------|--------------------------|--------------------------|-----------------------------
E|--------------------|--------------------------|--------------------------|-----------------------------

Stave 2:

E|--2--2--2--3--5--7--|-----7--5--7--5--3--|--5--7--0--3--|--2--2--2--0-----0--|--0--3--5--
B|--------------------|--5-----------------|--------------|--------------2-----|-----------
G|--------------------|--------------------|--------------|--------------------|-----------
D|--------------------|--------------------|--------------|--------------------|-----------
A|--------------------|--------------------|--------------|--------------------|-----------
E|--------------------|--------------------|--------------|--------------------|-----------

Stave 3:

E|--0--7--5--7--5--3--|--5--7--0--3--|--2--2--3--5--2--0--|-----3--7--|--10--|--9--8--
B|--------------------|--------------|--------------------|--5--------|------|--------
G|--------------------|--------------|--------------------|-----------|------|--------
D|--------------------|--------------|--------------------|-----------|------|--------
A|--------------------|--------------|--------------------|-----------|------|--------
E|--------------------|--------------|--------------------|-----------|------|--------

Stave 4:

E|------------------|--------------------------------|--10--|--9--8--|--------------7--
B|--8--------8--10--|--11--12--11--12--10------------|------|--------|--8--------8-----
G|-----9--9---------|----------------------12--9--7--|------|--------|-----9--9--------
D|------------------|--------------------------------|------|--------|-----------------
A|------------------|--------------------------------|------|--------|-----------------
E|------------------|--------------------------------|------|--------|-----------------

Stave 5:

E|--12--------------12--15--17--19--
B|------12--12--12------------------
G|----------------------------------
D|----------------------------------
A|----------------------------------
E|----------------------------------

http://www.guitartabcreator.com
Guitar Tab Creator is intended to store guitar tab created through the tool. It currently does not support in-line text editing. Any text you place in here will be lost. If you need to comment on your tab, please use the "Tab Notes" section located below.