Sound will begin in 5 seconds

Megaman - Airman

01234567891011121314151617181920212223
E
B
G
D
A
E
B
0 1 2 3 4 5 6 7 8 9 10 11 12 13 14 15 16 17 18 19 20 21 22 23
Song Science #1: How Pros Use 6 Chords to Write Hit Songs
(/) Slide Up  (\) Slide Down  (h) Hammer On  (p) Pull Off  (b) Bend (r) Release (v) Vibrato

Stave 1:

E|-----------------|-----------|-----------------|--------------------|--------------|-----------
B|--6--9--8--7--6--|--9--8--7--|--6--6--4--2--1--|--2--4--------1-----|--9--8--7--6--|--9--8--7--
G|-----------------|-----------|-----------------|--------1--3-----3--|--------------|-----------
D|-----------------|-----------|-----------------|--------------------|--------------|-----------
A|-----------------|-----------|-----------------|--------------------|--------------|-----------
E|-----------------|-----------|-----------------|--------------------|--------------|-----------

Stave 2:

E|-----------------|--------------------|-----------------------|--8--8--8--8--8--8--6--
B|--6--6--4--2--1--|--2--4--------1-----|-----1-----2-----4-----|-----------------------
G|-----------------|--------1--3-----3--|--3-----3-----3-----3--|-----------------------
D|-----------------|--------------------|-----------------------|-----------------------
A|-----------------|--------------------|-----------------------|-----------------------
E|-----------------|--------------------|-----------------------|-----------------------

Stave 3:

E|-----4--6--6--|--6-----4--5--|--6--4--6--|--13-------------|--------------
B|--6-----------|-----6--------|-----------|------11--10--9--|-----6--9--9--
G|--------------|--------------|-----------|-----------------|--8-----------
D|--------------|--------------|-----------|-----------------|--------------
A|--------------|--------------|-----------|-----------------|--------------
E|--------------|--------------|-----------|-----------------|--------------

Stave 4:

E|-----------8--6-----|-----------|-------------------|---------------------9--11--
B|--9--7--9--------9--|--9-----6--|--9--9--9--10--11--|--9------11--13--11---------
G|--------------------|-----8-----|-------------------|-----10---------------------
D|--------------------|-----------|-------------------|----------------------------
A|--------------------|-----------|-------------------|----------------------------
E|--------------------|-----------|-------------------|----------------------------

Stave 5:

E|--12--13--16--13--16--17--18--21--20--18--16--17--18--16--|--------------|--------------
B|----------------------------------------------------------|--18--16--14--|--13----------
G|----------------------------------------------------------|--------------|------15--13--
D|----------------------------------------------------------|--------------|--------------
A|----------------------------------------------------------|--------------|--------------
E|----------------------------------------------------------|--------------|--------------

Stave 6:

E|--------------|-----------------|----------------------------------------------11--13--11--13--14--
B|----------16--|--13--12--11--9--|------------------11------11--13--14--13--14----------------------
G|------14------|-----------------|--11--10--11--13------13------------------------------------------
D|--13----------|-----------------|------------------------------------------------------------------
A|--------------|-----------------|------------------------------------------------------------------
E|--------------|-----------------|------------------------------------------------------------------

Stave 7:

E|--18--17--16--15--14--13--12--11--10--------------|------------------|----------------------13--
B|--------------------------------------14--13------|------------------|------------------13------
G|----------------------------------------------15--|--15--15--13--15--|--15--15--13--15----------
D|--------------------------------------------------|------------------|--------------------------
A|--------------------------------------------------|------------------|--------------------------
E|--------------------------------------------------|------------------|--------------------------

Stave 8:

E|--11--|--16--14--13--11------|-----------------|-----------------9--13--|--11--11--8--13--
B|------|------------------11--|--11--11--9--11--|--11--11--9--11---------|-----------------
G|------|----------------------|-----------------|------------------------|-----------------
D|------|----------------------|-----------------|------------------------|-----------------
A|------|----------------------|-----------------|------------------------|-----------------
E|------|----------------------|-----------------|------------------------|-----------------

Stave 9:

E|-------------
B|-------------
G|--10------8--
D|------11-----
A|-------------
E|-------------

http://www.guitartabcreator.com
Guitar Tab Creator is intended to store guitar tab created through the tool. It currently does not support in-line text editing. Any text you place in here will be lost. If you need to comment on your tab, please use the "Tab Notes" section located below.