Sound will begin in 5 seconds

Fell on Black Days

01234567891011121314151617181920212223
E
B
G
D
A
E
B
0 1 2 3 4 5 6 7 8 9 10 11 12 13 14 15 16 17 18 19 20 21 22 23
(/) Slide Up  (\) Slide Down  (h) Hammer On  (p) Pull Off  (b) Bend (r) Release (v) Vibrato

Stave 1:

G|-----------------------------------
D|-----------------------------------
A|--7--------------------------------
E|--------7--7--7-----5-----5--5--0--

Stave 2:

G|-----------------------------------
D|-----------------------------------
A|--7--------------------------------
E|--------7--7--7-----8-----8--8--7--

Stave 3:

G|-----------------------------------
D|-----------------------------------
A|--7--------------------------------
E|--------7--7--7-----8-----8--8--0--

Stave 4:

G|-------------------------------------------------
D|-------------------------------------------------
A|--7--7--7-----------7----------------5-----3--3--
E|-----------7--7-----------7h5--5--5--------------

Stave 5:

G|---------------------------------|---------------------------------|--
D|---------------------------------|---------------------------------|--
A|--7--8--7-----9--7---------9--7--|--7--8--7-----9--7---------9--7--|--
E|-----------7--------10--8--------|-----------7--------10--8--------|--

Stave 6:

G|---------------------------------|---------------------------------|--
D|---------------------------------|---------------------------------|--
A|--7--8--7-----9--7---------9--7--|--8--7-----9--7------------------|--
E|-----------7--------10--8--------|--------7--------10--8-----------|--

Stave 7:

G|-------------------------|-----------------------------------------------
D|-------------------------|-----------------------------------------------
A|--------------7/11/5-----|--5--5--5-----5--5--5-----5--5--5-----5--5--5--
E|--7-----7--7-------------|-----------------------------------------------

http://www.guitartabcreator.com
Guitar Tab Creator is intended to store guitar tab created through the tool. It currently does not support in-line text editing. Any text you place in here will be lost. If you need to comment on your tab, please use the "Tab Notes" section located below.