"FLY" BY SUGAR RAY

Chords

01234567891011121314151617181920212223
E
B
G
D
A
E
B
0 1 2 3 4 5 6 7 8 9 10 11 12 13 14 15 16 17 18 19 20 21 22 23
(/) Slide Up  (\) Slide Down  (h) Hammer On  (p) Pull Off  (b) Bend (r) Release (v) Vibrato

E|--------------------------------------------------------------
B|--16--16--16--16--14--14--14--14--13--13--13--13--9--9--9--9--
G|--17--17--17--17--15--15--15--15--13--13--13--13--8--8--8--8--
D|--------------------------------------------------------------
A|--------------------------------------------------------------
E|--------------------------------------------------------------



E|-----------------
B|--9--7--6--7--9--
G|--8--6--5--6--8--
D|-----------------
A|-----------------
E|-----------------

[["."],["."],["."],["."],["7"],["."]]

Member for

8 years 8 months
Submitted by lloydster9000 on Wed, 2011-09-28 19:15