Sound will begin in 5 seconds

Transcendence

01234567891011121314151617181920212223
E
B
G
D
A
E
B
0 1 2 3 4 5 6 7 8 9 10 11 12 13 14 15 16 17 18 19 20 21 22 23
Song Science #1: How Pros Use 6 Chords to Write Hit Songs
(/) Slide Up  (\) Slide Down  (h) Hammer On  (p) Pull Off  (b) Bend (r) Release (v) Vibrato

Stave 1:

E|--------------------------------------------------------------------------------
B|--------------------------------------------------------------------------------
G|-------------9-------------9-------------9-------7-----10------7-----10------7--
D|--7---10--7------7--10--7------7--10--7------7------7-------7-----7-------7-----
A|--------------------------------------------------------------------------------
E|--------------------------------------------------------------------------------

Stave 2:

E|------------------------------------------------------------------------------------
B|-------------------------------------------------------------------8------------8---
G|----10--------9-------12------9------12------9------12-------7------------7---------
D|-7-------10------10-------10-----10------10-----10-------9------9------9-----9------
A|------------------------------------------------------------------------------------
E|------------------------------------------------------------------------------------

Stave 3:

E|-------------------------------------------------------------------------------
B|----------8--------------------------------------------------------------------
G|----7--------------------9-------------9-------------9-------------------------
D|-9-----9------7---10--7------7--10--7------7--10--7----------7-----10------7---
A|---------------------------------------------------------8------8-------8------
E|-------------------------------------------------------------------------------

Stave 4:

E|-----------------------------------------------------------------------------
B|-----------------------------------------------------------------------------
G|-----------------------------------------------------------------------------
D|----10------7-----10-------------------------------------------------6----9--
A|-8-------8-----8----------7-----10------7-----10------7-----10---7------7----
E|-----------------------8-----8-------8-----8-------8-----8-------------------

Stave 5:

E|---------------------------
B|---------------------------
G|---------------------------
D|----6-----9------6-----9---
A|-7-----7------7-----7------
E|---------------------------

Stave 6:

E|--------------------------------------------------------------------------------
B|-10-------------------------------------------------------------13---12-10------
G|-------10----12---9------------9--12---9---------9--12--9--12--------------9----
D|-----------------------10--12--------------12-----------------------------------
A|--------------------------------------------------------------------------------
E|--------------------------------------------------------------------------------

Stave 7:

E|-------------------------------------------------------------------12----
B|-----------------------------------------------------10--13---12---------
G|----------------9----12-10-9--12-9------------9-12-----------------------
D|----10----12-----------------------10---10-12----------------------------
A|-12----12----12---12-----------------------------------------------------
E|-------------------------------------------------------------------------

Stave 8:

E|-17-17-12-12-------12-12-------12-12-------12-12-------12-12-------12-12-------12-12-------12-12-
B|-------------13-13-------13-13-------13-13-------13-13-------13-13-------13-13-------13-13-------
G|-------------------------------------------------------------------------------------------------
D|-------------------------------------------------------------------------------------------------
A|-------------------------------------------------------------------------------------------------
E|-------------------------------------------------------------------------------------------------

Stave 9:

E|------------------------------------------------------------------------------------------------------
B|------------------------------------------------------------------------------------------------------
G|-10-10-----10-10-----10-10-----10-10-----10-10-----10-10-----10-10-----10-10-----------9-9-------9-9--
D|-------7-7-------7-7-------7-7-------7-7-------7-7-------7-7-------7-7-------7-7-10-10-----10-10------
A|------------------------------------------------------------------------------------------------------
E|------------------------------------------------------------------------------------------------------

Stave 10:

E|--------------------------------------------------------------------------------------------------
B|---------------------13-13-------13-13-------13-13-------13-13-------12-12-9-9--------------------
G|-12-12-9-9-12-12-9-9-------12-12-------12-12-------12-12-------12-12-----------9-9-----9-9-11-11--
D|-----------------------------------------------------------------------------------9-9------------
A|--------------------------------------------------------------------------------------------------
E|--------------------------------------------------------------------------------------------------

Stave 11:

E|-------------------12-12-------16-16-12-12-19-19-16-16-17----------17----------17--
B|-9-9-----12-12-9-9-------12-12----------------------------17----17----17----17-----
G|-----9-9-----------------------------------------------------17----------17--------
D|-----------------------------------------------------------------------------------
A|-----------------------------------------------------------------------------------
E|-----------------------------------------------------------------------------------

http://www.guitartabcreator.com
Guitar Tab Creator is intended to store guitar tab created through the tool. It currently does not support in-line text editing. Any text you place in here will be lost. If you need to comment on your tab, please use the "Tab Notes" section located below.