Sound will begin in 5 seconds

Set Me Free - A7X

01234567891011121314151617181920212223
E
B
G
D
A
E
B
0 1 2 3 4 5 6 7 8 9 10 11 12 13 14 15 16 17 18 19 20 21 22 23
(/) Slide Up  (\) Slide Down  (h) Hammer On  (p) Pull Off  (b) Bend (r) Release (v) Vibrato

Intro

Eb|---0---3-2-0-------------------3-2-0--------------------------------------------------------2-------
Bb|-----0-------------------------------3----------------1-3-1-----3-1--------------3--------3---3-----
Gb|-----------------------------2---------2------------0-------0-------0----------0--------2-------2---
Db|--------------------0-2-0-------------------------2-----------2-------2------0--------0-----------0-
Ab|----------------0-2-------------------------0-2-3---------------------------------------------------
Eb|-0-------------------------------------------------------------------------3------------------------

Guitarra 1

Eb|-------------------------------------------|-----------------------------------------------
Bb|-10/12----12-12----10-------12----10-------|-12/13----13-13----12-10-----------------------
Gb|----------------------12-11-------------11-|-------------------------12----11b12r11b12-11v-
Db|-------------------------------------------|-----------------------------------------------
Ab|-------------------------------------------|-----------------------------------------------
Eb|-------------------------------------------|-----------------------------------------------



Eb|-------------------------------------------10-10--------------|-8/10----8-7-------------------------
Bb|-10/12----12-12----10-------10/12----13----------12-10-13-12v-|-------------8-----------------------
Gb|----------------------12-11-----------------------------------|------------------7b9r7--------------
Db|--------------------------------------------------------------|---------------------------7b9r7b9r7-
Ab|--------------------------------------------------------------|-------------------------------------
Eb|--------------------------------------------------------------|-------------------------------------

Guitarra 2

Eb|-------------------------------------------------
Bb|-------------------------------------------------
Gb|-11/12----12-12----11-9-------11/12----11--------
Db|------------------------12-------------------12v-
Ab|-------------------------------------------------
Eb|-------------------------------------------------

							http://www.guitartabcreator.com
Note:
Guitar Tab Creator is intended to store guitar tab created through the tool. It currently does not support in-line text editing. Any text you place in here will be lost. If you need to comment on your tab, please use the "Tab Notes" section located below.