Sound will begin in 5 seconds

nfm parte 2

01234567891011121314151617181920212223
E
B
G
D
A
E
B
0 1 2 3 4 5 6 7 8 9 10 11 12 13 14 15 16 17 18 19 20 21 22 23
Song Science #1: How Pros Use 6 Chords to Write Hit Songs
(/) Slide Up  (\) Slide Down  (h) Hammer On  (p) Pull Off  (b) Bend (r) Release (v) Vibrato

Stave 1:

E|------------------------------------------------------------------------------------------------------
B|------------------------------------------------------------------------------------------------------
G|------------------------------------------------------------------------------------------------------
D|--------5--------5--------5--------5--5--3----------------5--------5--------5--------5--5--3----------
A|--3--6-----3--6-----3--6-----3--6-----------6--1/3--3--6-----3--6-----3--6-----3--6-----------6--1/3--
E|------------------------------------------------------------------------------------------------------

Stave 2:

E|------------------------------------------------------------------------------------------------------
B|------------------------------------------------------------------------------------------------------
G|--------1--------1--------1--------1--------1-----------1--------1--------1--------1--------1---------
D|-----3--------3--------3--------3--------3-----3-----3--------3--------3--------3--------3-----3------
A|--3--------3--------3--------3--------3-----------3--------3--------3--------3--------3-----------3v--
E|------------------------------------------------------------------------------------------------------

Stave 3:

E|----------------------------------------------------------------------|--8-----------8-----------8--------
B|----------------------------------------------------------------------|-----8-----8-----8-----8-----8-----
G|-------------------------------------------------------------1--------|--------8-----------8-----------8--
D|---------------5----------------------5-------------------3-----3v----|-----------------------------------
A|----3--3--3h6-----6--6--5--3--3--3h6-----6--6--5----3--3--------------|-----------------------------------
E|----------------------------------------------------------------------|-----------------------------------

Stave 4:

E|---------------------------------------------|--------------------------------------------
B|-----3--4----6--4--6----------3-----6--4--3--|--------3--------4v--4p3--------3--------4--
G|--5---------------------3--5-----3-----------|--5--5-----3--------------5--5-----3--------
D|---------------------------------------------|--------------5-----------------------5-----
A|---------------------------------------------|--------------------------------------------
E|---------------------------------------------|--------------------------------------------

http://www.guitartabcreator.com
Guitar Tab Creator is intended to store guitar tab created through the tool. It currently does not support in-line text editing. Any text you place in here will be lost. If you need to comment on your tab, please use the "Tab Notes" section located below.