Sound will begin in 5 seconds

EDV TEST

01234567891011121314151617181920212223
E
B
G
D
A
E
B
0 1 2 3 4 5 6 7 8 9 10 11 12 13 14 15 16 17 18 19 20 21 22 23
Song Science #1: How Pros Use 6 Chords to Write Hit Songs
(/) Slide Up  (\) Slide Down  (h) Hammer On  (p) Pull Off  (b) Bend (r) Release (v) Vibrato

Stave 1:

E|----------------------------------------------------------------------------------------------------------
B|--7-------------------------------------------------------7--9--7-----------------------------------7--9--
G|-----6--9-----6--9-----6--9--------6--9\14v--13--11----------------6--9-----6--9--6-----------6--9--------
D|-----------9--------9--------7--9--------------------14v-----------------9-----------9--7--9--------------
A|----------------------------------------------------------------------------------------------------------
E|----------------------------------------------------------------------------------------------------------

Stave 2:

E|--------------------------------------------------------------------------------------------------9------
B|----7-----7--7--9--7--------7-----7--7--9--7-------------------------------------------10-----10-----12--
G|-------9--------------9--6-----9--------------9--6---------------------6-----9------9------9-------------
D|----------------------------------------------------7v--7--9--7--7--9-----7-----11-----------------------
A|---------------------------------------------------------------------------------------------------------
E|---------------------------------------------------------------------------------------------------------

Stave 3:

E|--9h10p9--------------14--12--14--14--16--14--12------14--12--14--14--16--14--12-----------------------
B|----------12--10--9v------------------------------14------------------------------14--12---------------
G|------------------------------------------------------------------------------------------14--13--11v--
D|-------------------------------------------------------------------------------------------------------
A|-------------------------------------------------------------------------------------------------------
E|-------------------------------------------------------------------------------------------------------

Stave 4:

E|-------------------------------------------------------12------12--14--17--16--14--12------14--12------
B|-----------------------------------------------14----------14--------------------------14----------14--
G|------11-------------------------------------------14--------------------------------------------------
D|--14------14--11-------11----------11------------------------------------------------------------------
A|------------------14v------12----------12--------------------------------------------------------------
E|-------------------------------12----------12----------------------------------------------------------

Stave 5:

E|--12------14--12--------------12--------------------------------------------12------14--12------12------
B|------14--------------12--14------12--15--14h15p14--12--------------------------14----------14------14--
G|------------------14------------------------------------14--13--11------11------------------------------
D|--------------------------------------------------------------------14----------------------------------
A|--------------------------------------------------------------------------------------------------------
E|--------------------------------------------------------------------------------------------------------

Stave 6:

E|--14--12----------12------17------17--19--16-----------------12--14--12------------------9--12--9------
B|--------------14------14------17--------------19--17----19v--------------14--12--------------------12--
G|----------14---------------------------------------------------------------------14--11----------------
D|-------------------------------------------------------------------------------------------------------
A|-------------------------------------------------------------------------------------------------------
E|-------------------------------------------------------------------------------------------------------

Stave 7:

E|-------------------9--12------10--9h10p9------------------------12------14--12--------------12------14--
B|--10--9----10--12---------12--------------12--10--9-----------------14----------14------14------14------
G|-----------------------------------------------------11--9--11----------------------14------------------
D|--------------------------------------------------------------------------------------------------------
A|--------------------------------------------------------------------------------------------------------
E|--------------------------------------------------------------------------------------------------------

Stave 8:

E|--12--------------12------17--12--17--19--16------------14v--12--14--12--------------------------------
B|------14------14------14----------------------19--17---------------------14--12------------------------
G|----------14---------------------------------------------------------------------14----11------11--14--
D|-------------------------------------------------------------------------------------------14----------
A|-------------------------------------------------------------------------------------------------------
E|-------------------------------------------------------------------------------------------------------

Stave 9:

E|-----------------------------------------------------12v------------------------------------------------
B|--14--15--14--12-----------------12----------12--14-------14--15--14--12--------------------------------
G|------------------14--13--13h14----------14-------------------------------14--13--11--------11--14--11--
D|-------------------------------------14-----------------------------------------------14----------------
A|--------------------------------------------------------------------------------------------------------
E|--------------------------------------------------------------------------------------------------------

Stave 10:

E|------------------------------------------------------------------------------------------------------
B|--14------15--14--12----------------------------------------------------------------------------------
G|------11--------------14--13--11------------------14--13--11--------------------------------------14--
D|--------------------------------------11------14--------------14--11--------------11--11--14--14------
A|----------------------------------12------12--------------------------14--12--12----------------------
E|------------------------------------------------------------------------------------------------------

Stave 11:

E|----------------------17--17v--16--17--16--14---------------------------------------------------------
B|------14--14--17--17---------------------------17--14-----------------------------------9-------------
G|--14---------------------------------------------------16--14--13--------11--9--11--11-----11--9------
D|-------------------------------------------------------------------14-----------------------------11--
A|------------------------------------------------------------------------------------------------------
E|------------------------------------------------------------------------------------------------------

Stave 12:

E|--14--12--14--14--16--14--12----------------------------------------------------------------------------
B|------------------------------14--------------------------------------------------------14--17--15--14--
G|----------------------------------14--14h16p14------14h16p14------14h16p14------14--16------------------
D|------------------------------------------------14------------14------------14--------------------------
A|--------------------------------------------------------------------------------------------------------
E|--------------------------------------------------------------------------------------------------------

Stave 13:

E|-------------------------------------------------14--12--14--14--17--16--14---------------------------
B|---------------------------------9-------------------------------------------17--14-------------------
G|--16--14--13------11--9--11--11-----11--9--------------------------------------------16--13-----------
D|--------------14---------------------------11------------------------------------------------16v--14--
A|------------------------------------------------------------------------------------------------------
E|------------------------------------------------------------------------------------------------------

Stave 14:

E|--------------------------------------------------12------12--14--17--16--14--12------14--12------12--
B|------------------------------------------14----------14--------------------------14----------14------
G|----------------------------------------------14------------------------------------------------------
D|--16--14----------11----------11----------------------------------------------------------------------
A|----------16--14------12----------12------------------------------------------------------------------
E|--------------------------12----------12--------------------------------------------------------------

Stave 15:

E|------14--12------------------12--------------------------------------------12------14--12--------------
B|--14----------14------12--14------12--15--14h15p14--12--------------------------14----------14------14--
G|------------------14------------------------------------14--13--11------11----------------------14------
D|--------------------------------------------------------------------14----------------------------------
A|--------------------------------------------------------------------------------------------------------
E|--------------------------------------------------------------------------------------------------------

Stave 16:

E|--12------14--12----------------------17------17--19--16-----------------12h14p12-------------------
B|------14----------14------14--17--14------17--------------19--17----19v------------14--12-----------
G|----------------------14-------------------------------------------------------------------14--11v--
D|----------------------------------------------------------------------------------------------------
A|----------------------------------------------------------------------------------------------------
E|----------------------------------------------------------------------------------------------------

Stave 17:

E|--9h12p9-------------------------12------10--9h10p9------------------------12------14--12--------------
B|----------12--10--9--10--12--14------12--------------12--10--9-----------------14----------14------14--
G|----------------------------------------------------------------11--9--11----------------------14------
D|-------------------------------------------------------------------------------------------------------
A|-------------------------------------------------------------------------------------------------------
E|-------------------------------------------------------------------------------------------------------

Stave 18:

E|--12------14--12----------------------17------17--19--16----------------------------------------------
B|------14----------14------14--17--14------17--------------19--17----15v--14h15p14--14p12--------------
G|----------------------14------------------------------------------------------------------14--11------
D|--------------------------------------------------------------------------------------------------14--
A|------------------------------------------------------------------------------------------------------
E|------------------------------------------------------------------------------------------------------

Stave 19:

E|--------------------12-------12v--17v--16h17p16--16p14---------------------------17--19--|--12--14--|--
B|------------12--14------12v-----------------------------17--14------14v--17--19----------|----------|--
G|--11----14------------------------------------------------------16-----------------------|----------|--
D|-----------------------------------------------------------------------------------------|----------|--
A|-----------------------------------------------------------------------------------------|----------|--
E|-----------------------------------------------------------------------------------------|----------|--

Stave 20:

E|--17--19v--
B|-----------
G|-----------
D|-----------
A|-----------
E|-----------

http://www.guitartabcreator.com
Guitar Tab Creator is intended to store guitar tab created through the tool. It currently does not support in-line text editing. Any text you place in here will be lost. If you need to comment on your tab, please use the "Tab Notes" section located below.