Sound will begin in 5 seconds

EDV 2

01234567891011121314151617181920212223
E
B
G
D
A
E
B
0 1 2 3 4 5 6 7 8 9 10 11 12 13 14 15 16 17 18 19 20 21 22 23
Song Science #1: How Pros Use 6 Chords to Write Hit Songs
(/) Slide Up  (\) Slide Down  (h) Hammer On  (p) Pull Off  (b) Bend (r) Release (v) Vibrato

Stave 1:

E|--17--19v--------12------14--12------12------14--12--------------12-------------------------------------
B|-------------14------14----------14------14--------------12--14------12--15v--14h15p14--12--------------
G|-----------------------------------------------------14-------------------------------------14--13--11--
D|--------------------------------------------------------------------------------------------------------
A|--------------------------------------------------------------------------------------------------------
E|--------------------------------------------------------------------------------------------------------

Stave 2:

E|----------12------14--12--------------12------14--12----------------------17------17--19--16------------
B|--------------14----------14------14------14----------14------14--17--14------17--------------19--17----
G|------11----------------------14--------------------------14--------------------------------------------
D|--14----------------------------------------------------------------------------------------------------
A|--------------------------------------------------------------------------------------------------------
E|--------------------------------------------------------------------------------------------------------

Stave 3:

E|-------12h14p12------------------9h12p9----------------------9--12------10--9h10p9------------------------
B|--19v------------14--12------------------12--10--9v--10--12---------12--------------12--10--9-------------
G|-------------------------14--11----------------------------------------------------------------11--9--11--
D|----------------------------------------------------------------------------------------------------------
A|----------------------------------------------------------------------------------------------------------
E|----------------------------------------------------------------------------------------------------------

Stave 4:

E|--12------14--12--------------12------14--17p16p14---------------------12------17------17--19--21--19--
B|------14----------14------14------14----------------17p14----------14------14------17------------------
G|----------------------14-----------------------------------16--14--------------------------------------
D|-------------------------------------------------------------------------------------------------------
A|-------------------------------------------------------------------------------------------------------
E|-------------------------------------------------------------------------------------------------------

Stave 5:

E|----------
B|--17h19v--
G|----------
D|----------
A|----------
E|----------

http://www.guitartabcreator.com
Guitar Tab Creator is intended to store guitar tab created through the tool. It currently does not support in-line text editing. Any text you place in here will be lost. If you need to comment on your tab, please use the "Tab Notes" section located below.