Sound will begin in 5 seconds

Renegades of Funk

Chords
01234567891011121314151617181920212223
E
B
G
D
A
E
B
0 1 2 3 4 5 6 7 8 9 10 11 12 13 14 15 16 17 18 19 20 21 22 23
(/) Slide Up  (\) Slide Down  (h) Hammer On  (p) Pull Off  (b) Bend (r) Release (v) Vibrato

Stave 1:

E|-12-12-8-8-12-12-8-8-12-12-8-8-12-12-8-8----13-13-10-10-13-13-10-10-13-13-10-10-13-13-10-10-
B|--------------------------------------------------------------------------------------------
G|--------------------------------------------------------------------------------------------
D|--------------------------------------------------------------------------------------------
A|--------------------------------------------------------------------------------------------
E|--------------------------------------------------------------------------------------------

Stave 2:

E|-----------------------------------------------------
B|-----------------------------------------------------
G|-----------------------------------------------------
D|-10-12----0-------10-12----0-------10-12-0-------3-5-
A|-10-12----0-------10-12----0-------10-12-0-------3-5-
E|-10-12----0-------10-12----0-------10-12-0-------3-5-

Stave 3:

E|-------------5-5-8----5-----
B|-----6-6-8-8------------6---
G|-7-7----------------------7-
D|----------------------------
A|----------------------------
E|----------------------------

Stave 4:

E|-------
B|-------
G|-------
D|-5-3-0-
A|-5-3-0-
E|-5-3-0-

Stave 5:

E|-----
B|-----
G|-----
D|-5-7-
A|-5-7-
E|-5-7-

Stave 6:

E|-------------------
B|-------------------
G|-------------------
D|-8-8-8-8b8-8-8b8b8b
A|-------------------
E|-------------------

http://www.guitartabcreator.com
Guitar Tab Creator is intended to store guitar tab created through the tool. It currently does not support in-line text editing. Any text you place in here will be lost. If you need to comment on your tab, please use the "Tab Notes" section located below.