Twist & Shout Intro & Solo

Chords

01234567891011121314151617181920212223
E
B
G
D
A
E
B
0 1 2 3 4 5 6 7 8 9 10 11 12 13 14 15 16 17 18 19 20 21 22 23
(/) Slide Up  (\) Slide Down  (h) Hammer On  (p) Pull Off  (b) Bend (r) Release (v) Vibrato

Stave 1:

E|-----------x-----3-----5--
B|-----------7-----3-----5--
G|-----------7-----4-----6--
D|-----------7-----5-----5--
A|--------4--5-----5-----7--
E|--5--7-----x-----3-----5--

Stave 2:

E|--------------------------
B|--------------------------
G|-----------4--2--2--0-----
D|--------5--------------4--
A|--5--5--------------------
E|--------------------------

							http://www.guitartabcreator.com
genre
Instruments
{"strings":[[[".",".",".","x0","_",3,"_",5],[".",".",".",7,"_",3,"_",5],[".",".",".",7,"_",4,"_",6],[".",".",".",7,"_",5,"_",5],[".",".",4,5,"_",5,"_",7],[5,7,".","x0","_",3,"_",5]],[[".",".",".",".",".",".",".","."],[".",".",".",".",".",".",".","."],[".",".",".",4,2,2,0,"."],[".",".",5,".",".",".",".",4],[5,5,".",".",".",".",".","."],[".",".",".",".",".",".",".","."]]],"numberofstrings":6,"notes":["E","B","G","D","A","E","B"],"capo":0,"stringnotes":["E4","B3","G3","D3","A2","E2"],"comments":["Stave 1:","Stave 2:"],"timing":[["W","W","W","W","W","W",null,"W"],["W","W","W","W","W","W","W","W"]],"timingvisible":false,"tabcounter":8,"stave":1,"totalstaves":2,"instrument":"6guitar","selectedtuning":"6_standard","version":"13"}

Member for

7 years 6 months
Submitted by LJN62 on Fri, 2020-10-30 15:46