Stone Cold Fever Solo

Chords

01234567891011121314151617181920212223
E
B
G
D
A
E
B
0 1 2 3 4 5 6 7 8 9 10 11 12 13 14 15 16 17 18 19 20 21 22 23
(/) Slide Up  (\) Slide Down  (h) Hammer On  (p) Pull Off  (b) Bend (r) Release (v) Vibrato

Stave 1:

E|----------------------------------------------------------------------------------------------------
B|--8h10--8--7-----7-----------8--7-----7-------------------------------------------------------------
G|--------------9-----7--------------9-----7-----9--7-------------------------------------------------
D|-----------------------9--------------------9--------9--8--7\5--7--5-----------------4--5--4--------
A|----------------------------------------------------------------------7--5--7-----7-----------5-----
E|-------------------------------------------------------------------------------------------------7--

Stave 2:

E|---------------------------------7--10h12--9--9-------------
B|-----------------------7--8--10------------------10---------
G|-----------4--6--7--9--------------------------------11--9--
D|-----4--7---------------------------------------------------
A|--5---------------------------------------------------------
E|------------------------------------------------------------

Stave 3:

E|---------------------------12----------12---------------------------------------
B|---------9--10--12-----14------15--15------17b19r17--15-----17--15------15------
G|--9--11-------------------------------------------------------------16------16--
D|--------------------------------------------------------------------------------
A|--------------------------------------------------------------------------------
E|--------------------------------------------------------------------------------

Stave 4:

E|--------------------------------------------------------
B|--------------------------------------------------------
G|--14--12--11--12p11------11-----------------------------
D|---------------------14------12------12--12p11----------
A|---------------------------------14-------------12--14--
E|--------------------------------------------------------

Stave 5:

E|----------14--17--17--17--15--15--15--14--14--14--12--12--12--------------
B|------15------------------------------------------------------15--14--15--
G|--16----------------------------------------------------------------------
D|--------------------------------------------------------------------------
A|--------------------------------------------------------------------------
E|--------------------------------------------------------------------------

Stave 6:

E|---------------------------------------------------------------------------------------------------
B|--15p14p13--12-------------------------------------------------------------------------------------
G|----------------14--12--11h12--11------11---------------------------12p11------11----------11------
D|-----------------------------------14------12--11h12--------12--14---------14----------12------14--
A|-----------------------------------------------------------------------------------14--------------
E|---------------------------------------------------------------------------------------------------

							http://www.guitartabcreator.com
genre
Instruments
{"strings":[[[".",".",".",".",".",".",".",".",".","_",".",".",".",".",".",".",".",".",".",".",".",".",".",".",".",".",".",".","_",".",".",".",".",".","."],[8,"h",10,8,7,".",7,".",".","_",8,7,".",7,".",".",".",".",".",".",".",".",".",".",".",".",".",".","_",".",".",".",".",".","."],[".",".",".",".",".",9,".",7,".","_",".",".",9,".",7,".",9,7,".",".",".",".",".",".",".",".",".",".","_",".",".",".",".",".","."],[".",".",".",".",".",".",".",".",9,"_",".",".",".",".",".",9,".",".",9,8,7,"\\",5,7,5,".",".",".","_",".",4,5,4,".","."],[".",".",".",".",".",".",".",".",".","_",".",".",".",".",".",".",".",".",".",".",".",".",".",".",".",7,5,7,"_",7,".",".",".",5,"."],[".",".",".",".",".",".",".",".",".","_",".",".",".",".",".",".",".",".",".",".",".",".",".",".",".",".",".",".","_",".",".",".",".",".",7]],[[".",".",".",".",".",".",".",".",".",".",7,10,"h",12,9,9,".",".","."],[".",".",".",".",".",".",".",7,8,10,".",".",".",".",".",".",10,".","."],[".",".",".",4,6,7,9,".",".",".",".",".",".",".",".",".",".",11,9],[".",4,7,".",".",".",".",".",".",".",".",".",".",".",".",".",".",".","."],[5,".",".",".",".",".",".",".",".",".",".",".",".",".",".",".",".",".","."],[".",".",".",".",".",".",".",".",".",".",".",".",".",".",".",".",".",".","."]],[[".",".",".",".",".","_",".",12,".",".",12,".",".",".",".",".",".","_",".",".",".",".","."],[".",".",9,10,12,"_",14,".",15,15,".",17,"b",19,"r",17,15,"_",17,15,".",15,"."],[9,11,".",".",".","_",".",".",".",".",".",".",".",".",".",".",".","_",".",".",16,".",16],[".",".",".",".",".","_",".",".",".",".",".",".",".",".",".",".",".","_",".",".",".",".","."],[".",".",".",".",".","_",".",".",".",".",".",".",".",".",".",".",".","_",".",".",".",".","."],[".",".",".",".",".","_",".",".",".",".",".",".",".",".",".",".",".","_",".",".",".",".","."]],[[".",".",".",".",".",".",".",".",".",".",".",".",".",".",".","."],[".",".",".",".",".",".",".",".",".",".",".",".",".",".",".","."],[14,12,11,12,"p",11,".",11,".",".",".",".",".",".",".","."],[".",".",".",".",".",".",14,".",12,".",12,12,"p",11,".","."],[".",".",".",".",".",".",".",".",".",14,".",".",".",".",12,14],[".",".",".",".",".",".",".",".",".",".",".",".",".",".",".","."]],[[".",".",14,17,17,17,15,15,15,14,14,14,12,12,12,".",".","."],[".",15,".",".",".",".",".",".",".",".",".",".",".",".",".",15,14,15],[16,".",".",".",".",".",".",".",".",".",".",".",".",".",".",".",".","."],[".",".",".",".",".",".",".",".",".",".",".",".",".",".",".",".",".","."],[".",".",".",".",".",".",".",".",".",".",".",".",".",".",".",".",".","."],[".",".",".",".",".",".",".",".",".",".",".",".",".",".",".",".",".","."]],[[".",".",".",".",".",".",".",".",".",".",".",".",".",".",".",".",".",".","_","_",".",".",".",".",".",".",".",".",".",".","."],[15,"p",14,"p",13,12,".",".",".",".",".",".",".",".",".",".",".",".","_","_",".",".",".",".",".",".",".",".",".",".","."],[".",".",".",".",".",".",14,12,11,"h",12,11,".",11,".",".",".",".","_","_",".",".",12,"p",11,".",11,".",".",11,"."],[".",".",".",".",".",".",".",".",".",".",".",".",14,".",12,11,"h",12,"_","_",12,14,".",".",".",14,".",".",12,".",14],[".",".",".",".",".",".",".",".",".",".",".",".",".",".",".",".",".",".","_","_",".",".",".",".",".",".",".",14,".",".","."],[".",".",".",".",".",".",".",".",".",".",".",".",".",".",".",".",".",".","_","_",".",".",".",".",".",".",".",".",".",".","."]]],"numberofstrings":6,"notes":["E","B","G","D","A","E","B"],"capo":0,"stringnotes":["E4","B3","G3","D3","A2","E2"],"comments":["Stave 1:","Stave 2:","Stave 3:","Stave 4:","Stave 5:","Stave 6:"],"timing":[["W",null,"W","W","W","W","W","W","W",null,"W","W","W","W","W","W","W","W","W","W","W",null,"W","W","W","W","W","W","W","W","W","W","W","W","W"],["W","W","W","W","W","W","W","W","W","W","W","W","W","W","W","W","W","W","W"],["W","W","W","W","W","W","W","W","W","W","W","W",null,"W",null,"W","W","W","W","W","W","W","W"],["W","W","W","W",null,"W","W","W","W","W","W","W",null,"W","W","W"],["W","W","W","W","W","W","W","W","W","W","W","W","W","W","W","W","W","W"],["W",null,"W",null,"W","W","W","W","W",null,"W","W","W","W","W","W",null,"W",null,null,"W","W","W",null,"W","W","W","W","W","W","W"]],"timingvisible":false,"tabcounter":35,"stave":0,"totalstaves":6,"instrument":"6guitar","selectedtuning":"6_standard","version":"13"}

Member for

7 years 8 months
Submitted by LJN62 on Wed, 2020-12-02 17:11