Stone Cold Fever Riffs Humble Pie

Chords

01234567891011121314151617181920212223
E
B
G
D
A
E
B
0 1 2 3 4 5 6 7 8 9 10 11 12 13 14 15 16 17 18 19 20 21 22 23
(/) Slide Up  (\) Slide Down  (h) Hammer On  (p) Pull Off  (b) Bend (r) Release (v) Vibrato

Stave 1:

E|-----------------------------------|-------------------------------0--
B|-----------------------------------|----------------------------------
G|-----------------------------------|-----------------------2b3--------
D|--2--2--2--2--2--0-----------------|--2--2--2--2--2--0----------2-----
A|--------------------2-----0--------|--------------------2-------------
E|-----------------------3-----3--0--|----------------------------------

Stave 2:

E|-----------------------------------------
B|-----------------------------------------
G|-----------------------------------------
D|-----------------------------5-----------
A|-----5--6--7--7--7--------5-----7--7--7--
E|--7--------------------7-----------------

Stave 3:

E|-----------------------------------------
B|--------------------8-----------------8--
G|--------------------7-----------------7--
D|--------------------6-----------5-----6--
A|-----5--6--7--7--7--7--------5-----7--7--
E|--7-----------------------7--------------

Stave 4:

E|-----------------------------------------------|--------------------------------------
B|-----------------------------------------------|--------------------------------------
G|-----------------------------------------------|--------------------------------------
D|-----------------------------5-----------------|--------------------5-----------------
A|-----5--7-----------5--6--7--------------------|-----------5--6--7--------------------
E|--7--------5--6--7--------------5--3--5--5--5--|--5--6--7--------------5--3--5--3--0--

							http://www.guitartabcreator.com
Instruments
{"strings":[[[".",".",".",".",".",".",".",".",".",".",".","|",".",".",".",".",".",".",".",".",".",".",".",0],[".",".",".",".",".",".",".",".",".",".",".","|",".",".",".",".",".",".",".",".",".",".",".","."],[".",".",".",".",".",".",".",".",".",".",".","|",".",".",".",".",".",".",".",2,"b",3,".","."],[2,2,2,2,2,0,".",".",".",".",".","|",2,2,2,2,2,0,".",".",".",".",2,"."],[".",".",".",".",".",".",2,".",0,".",".","|",".",".",".",".",".",".",2,".",".",".",".","."],[".",".",".",".",".",".",".",3,".",3,0,"|",".",".",".",".",".",".",".",".",".",".",".","."]],[[".",".",".",".",".",".","_",".",".",".",".",".","."],[".",".",".",".",".",".","_",".",".",".",".",".","."],[".",".",".",".",".",".","_",".",".",".",".",".","."],[".",".",".",".",".",".","_",".",".",5,".",".","."],[".",5,6,7,7,7,"_",".",5,".",7,7,7],[7,".",".",".",".",".","_",7,".",".",".",".","."]],[[".",".",".",".",".",".",".","_",".",".",".",".","."],[".",".",".",".",".",".",8,"_",".",".",".",".",8],[".",".",".",".",".",".",7,"_",".",".",".",".",7],[".",".",".",".",".",".",6,"_",".",".",5,".",6],[".",5,6,7,7,7,7,"_",".",5,".",7,7],[7,".",".",".",".",".",".","_",7,".",".",".","."]],[[".",".",".",".",".",".",".",".",".",".",".",".",".",".",".","|",".",".",".",".",".",".",".",".",".",".",".","."],[".",".",".",".",".",".",".",".",".",".",".",".",".",".",".","|",".",".",".",".",".",".",".",".",".",".",".","."],[".",".",".",".",".",".",".",".",".",".",".",".",".",".",".","|",".",".",".",".",".",".",".",".",".",".",".","."],[".",".",".",".",".",".",".",".",".",5,".",".",".",".",".","|",".",".",".",".",".",".",5,".",".",".",".","."],[".",5,7,".",".",".",5,6,7,".",".",".",".",".",".","|",".",".",".",5,6,7,".",".",".",".",".","."],[7,".",".",5,6,7,".",".",".",".",5,3,5,5,5,"|",5,6,7,".",".",".",".",5,3,5,3,0]]],"numberofstrings":6,"notes":["E","B","G","D","A","E","B"],"capo":0,"stringnotes":["E4","B3","G3","D3","A2","E2"],"comments":["Stave 1:","Stave 2:","Stave 3:","Stave 4:"],"timing":[["W","W","W","W","W","W","W","W","W","W","W",null,"W","W","W","W","W","W","W","W",null,"W","W","W"],["W","W","W","W","W","W",null,"W","W","W","W","W","W"],["W","W","W","W","W","W","W",null,"W","W","W","W","W"],["W","W","W","W","W","W","W","W","W","W","W","W","W","W","W",null,"W","W","W","W","W","W","W","W","W","W","W","W"]],"timingvisible":false,"tabcounter":28,"stave":3,"totalstaves":4,"instrument":"6guitar","selectedtuning":"6_standard","version":"13"}

Member for

7 years 6 months
Submitted by LJN62 on Fri, 2020-11-20 13:20