Sound will begin in 5 seconds

Sleepwalk Pt. 1

Chords
01234567891011121314151617181920212223
E
B
G
D
A
E
B
0 1 2 3 4 5 6 7 8 9 10 11 12 13 14 15 16 17 18 19 20 21 22 23
Song Science #1: How Pros Use 6 Chords to Write Hit Songs
(/) Slide Up  (\) Slide Down  (h) Hammer On  (p) Pull Off  (b) Bend (r) Release (v) Vibrato

Stave 1:

E|--------12---------------------------------------------------------------------
B|--8/10------12----------------------10--10--10--10--10--9---9---9---9---9---8--
G|----------------9---9---9---9---9---9---9---9---9---9---10--10--10--10--10--7--
D|----------------10--10--10--10--10---------------------------------------------
A|-------------------------------------------------------------------------------
E|-------------------------------------------------------------------------------

Stave 2:

E|--------12-------------------------
B|--8/10------12--9---9---9---9---8--
G|----------------10--10--10--10--7--
D|-----------------------------------
A|-----------------------------------
E|-----------------------------------

Stave 3:

E|---------------------------------------------------------------------------------------------------
B|--11b13--8v------8--8h9--8------11b13--8v------8h9--8------8-----8---------------------------------
G|-------------10-------------10-------------10----------10-----9-----9---------5--5--9--9--9--9--5--
D|-----------------------------------------------------------------------10--7-----------------------
A|---------------------------------------------------------------------------------------------------
E|---------------------------------------------------------------------------------------------------

Stave 4:

E|--------12-------------------------
B|--8/10------12--9---9---9---9---8--
G|----------------10--10--10--10--7--
D|-----------------------------------
A|-----------------------------------
E|-----------------------------------

http://www.guitartabcreator.com
Guitar Tab Creator is intended to store guitar tab created through the tool. It currently does not support in-line text editing. Any text you place in here will be lost. If you need to comment on your tab, please use the "Tab Notes" section located below.