Red Baron Main Theme

01234567891011121314151617181920212223
E
B
G
D
A
E
B
0 1 2 3 4 5 6 7 8 9 10 11 12 13 14 15 16 17 18 19 20 21 22 23
(/) Slide Up  (\) Slide Down  (h) Hammer On  (p) Pull Off  (b) Bend (r) Release (v) Vibrato

Stave 1:

E|--3-----------------------------------------
B|--------------------------------------------
G|--------------------------3--2-----2--3-----
D|-----5--3--5--5--5-----5--------5--------5--
A|--------------------------------------------
E|--------------------------------------------

Stave 2:

E|--3--------------------------------------------------------------------
B|--------------------------2--3-----------2--3-----------2--3-----------
G|--------------------------------3--2-----------2--3-----------3--2-----
D|-----5--3--5--5--5-----5--------------5--------------5--------------5--
A|-----------------------------------------------------------------------
E|-----------------------------------------------------------------------

Stave 3:

E|--3-----------------------------------------
B|--------------------------------------------
G|--------------------------3--2-----3--2-----
D|-----5--3--5--5--5-----5--------5--------5--
A|--------------------------------------------
E|--------------------------------------------

Stave 4:

E|-----------------3--------------------------------------------
B|--------------3-----3-----------------------------------------
G|-----3--5--6--------------3--3--2--------3--2-----2--------2--
D|--5--------------------5-----------3-----------5-----5--3-----
A|--------------------------------------4-----------------------
E|--------------------------------------------------------------

Stave 5:

E|--5--------3--
B|--6--------4--
G|--5--------3--
D|--5--------3--
A|--6--------4--
E|--x--------x--

							http://www.guitartabcreator.com
Chords

genre
Instruments
{"strings":[[[3,".",".",".",".",".","_",".",".",".",".",".",".","."],[".",".",".",".",".",".","_",".",".",".",".",".",".","."],[".",".",".",".",".",".","_",".",3,2,".",2,3,"."],[".",5,3,5,5,5,"_",5,".",".",5,".",".",5],[".",".",".",".",".",".","_",".",".",".",".",".",".","."],[".",".",".",".",".",".","_",".",".",".",".",".",".","."]],[[3,".",".",".",".",".","_",".",".",".",".",".",".",".",".",".",".",".",".",".",".",".","."],[".",".",".",".",".",".","_",".",2,3,".",".",".",2,3,".",".",".",2,3,".",".","."],[".",".",".",".",".",".","_",".",".",".",3,2,".",".",".",2,3,".",".",".",3,2,"."],[".",5,3,5,5,5,"_",5,".",".",".",".",5,".",".",".",".",5,".",".",".",".",5],[".",".",".",".",".",".","_",".",".",".",".",".",".",".",".",".",".",".",".",".",".",".","."],[".",".",".",".",".",".","_",".",".",".",".",".",".",".",".",".",".",".",".",".",".",".","."]],[[3,".",".",".",".",".","_",".",".",".",".",".",".","."],[".",".",".",".",".",".","_",".",".",".",".",".",".","."],[".",".",".",".",".",".","_",".",3,2,".",3,2,"."],[".",5,3,5,5,5,"_",5,".",".",5,".",".",5],[".",".",".",".",".",".","_",".",".",".",".",".",".","."],[".",".",".",".",".",".","_",".",".",".",".",".",".","."]],[[".",".",".",".",".",3,".",".",".",".",".",".",".",".",".",".",".",".",".","."],[".",".",".",".",3,".",3,".",".",".",".",".",".",".",".",".",".",".",".","."],[".",3,5,6,".",".",".",".",3,3,2,".",".",3,2,".",2,".",".",2],[5,".",".",".",".",".",".",5,".",".",".",3,".",".",".",5,".",5,3,"."],[".",".",".",".",".",".",".",".",".",".",".",".",4,".",".",".",".",".",".","."],[".",".",".",".",".",".",".",".",".",".",".",".",".",".",".",".",".",".",".","."]],[[5,"_","_",3],[6,"_","_",4],[5,"_","_",3],[5,"_","_",3],[6,"_","_",4],["x0","_","_","x0"]]],"numberofstrings":6,"notes":["E","B","G","D","A","E","B"],"capo":0,"stringnotes":["E4","B3","G3","D3","A2","E2"],"comments":["Stave 1:","Stave 2:","Stave 3:","Stave 4:","Stave 5:"],"timing":[["W","W","W","W","W","W",null,"W","W","W","W","W","W","W"],["W","W","W","W","W","W","W","W","W","W","W","W","W","W","W","W","W","W","W","W","W","W","W","W","W"],["W","W","W","W","W","W",null,"W","W","W","W","W","W","W"],["W","W","W","W","W","W","W","W","W","W","W","W","W","W","W","W","W","W","W","W"],["W",null,null,"W"]],"timingvisible":false,"tabcounter":3,"stave":4,"totalstaves":5,"instrument":"6guitar","selectedtuning":"6_standard","version":"13"}

Member for

7 years 8 months
Submitted by LJN62 on Tue, 2020-09-29 18:44