Paranoid Intro and Solo Black Sabbath

Chords

01234567891011121314151617181920212223
E
B
G
D
A
E
B
0 1 2 3 4 5 6 7 8 9 10 11 12 13 14 15 16 17 18 19 20 21 22 23
(/) Slide Up  (\) Slide Down  (h) Hammer On  (p) Pull Off  (b) Bend (r) Release (v) Vibrato

Stave 1:

E|--------------------------------------
B|--------------------------------------
G|-----------------------7h9-------7h9--
D|-----9--7h9--7h9--7h9-------7h9-------
A|--7-----7----7------------------------
E|--0-----0----0------------------------

Stave 2:

E|-------------------------------------------------------------
B|-------------------------------------------------------------
G|--9b11r9--7--9--9--7--9--7-----------------------------------
D|----------------------------9--5--7--5--7-----------5--------
A|-------------------------------------------5--7--7-----7--7--
E|-------------------------------------------------------------

Stave 3:

E|-------------------------------------------------------------------------------
B|-----------------------8h10--10b12r10--8--10b12r10--8--10--8-------------------
G|------------7--9--9h9-----------------------------------------9--9--7h9--9--9--
D|--5h7--7/9---------------------------------------------------------------------
A|-------------------------------------------------------------------------------
E|-------------------------------------------------------------------------------

Stave 4:

E|-------------12----------------------------
B|---------12------15--15b17--15b17--15--12--
G|--14b16------------------------------------
D|-------------------------------------------
A|-------------------------------------------
E|-------------------------------------------

Stave 5:

E|--15b17--15b17r15--12--15--12------15--12-------------------------12--------------------------------------------
B|-------------------------------12----------12--12-------------12------15--12------------------------------------
G|---------------------------------------------------14--14b16------------------14--14--12------12--14b16r14--12--
D|------------------------------------------------------------------------------------------14--------------------
A|----------------------------------------------------------------------------------------------------------------
E|----------------------------------------------------------------------------------------------------------------

Stave 6:

E|-----------------------------------------------------------------------------------------------------------
B|-----------------------------------------------------------------------------------------------------------
G|--14b16--12--14--12------12------------------------------------------------------------12------------------
D|---------------------14------14-----14--12------12-------------------------12--12--14------14--14--12--14--
A|--------------------------------------------14------12--10--12------12/14----------------------------------
E|----------------------------------------------------------------12-----------------------------------------

							http://www.guitartabcreator.com
genre
Instruments
{"strings":[[[".",".",".",".",".",".",".",".",".",".",".",".",".",".",".",".",".",".",".","."],[".",".",".",".",".",".",".",".",".",".",".",".",".",".",".",".",".",".",".","."],[".",".",".",".",".",".",".",".",".",".",".",7,"h",9,".",".",".",7,"h",9],[".",9,7,"h",9,7,"h",9,7,"h",9,".",".",".",7,"h",9,".",".","."],[7,".",7,".",".",7,".",".",".",".",".",".",".",".",".",".",".",".",".","."],[0,".",0,".",".",0,".",".",".",".",".",".",".",".",".",".",".",".",".","."]],[[".",".",".",".",".",".",".",".",".",".",".",".",".",".",".",".",".",".",".",".",".","."],[".",".",".",".",".",".",".",".",".",".",".",".",".",".",".",".",".",".",".",".",".","."],[9,"b",11,"r",9,7,9,9,7,9,7,".",".",".",".",".",".",".",".",".",".","."],[".",".",".",".",".",".",".",".",".",".",".",9,5,7,5,7,".",".",".",5,".","."],[".",".",".",".",".",".",".",".",".",".",".",".",".",".",".",".",5,7,7,".",7,7],[".",".",".",".",".",".",".",".",".",".",".",".",".",".",".",".",".",".",".",".",".","."]],[[".",".",".",".",".",".",".",".",".",".",".",".",".",".",".",".",".",".",".",".",".",".",".",".",".",".",".",".",".",".",".",".",".",".","."],[".",".",".",".",".",".",".",".",".",".",".",8,"h",10,10,"b",12,"r",10,8,10,"b",12,"r",10,8,10,8,".",".",".",".",".",".","."],[".",".",".",".",".",".",7,9,9,"h",9,".",".",".",".",".",".",".",".",".",".",".",".",".",".",".",".",".",9,9,7,"h",9,9,9],[5,"h",7,7,"/",9,".",".",".",".",".",".",".",".",".",".",".",".",".",".",".",".",".",".",".",".",".",".",".",".",".",".",".",".","."],[".",".",".",".",".",".",".",".",".",".",".",".",".",".",".",".",".",".",".",".",".",".",".",".",".",".",".",".",".",".",".",".",".",".","."],[".",".",".",".",".",".",".",".",".",".",".",".",".",".",".",".",".",".",".",".",".",".",".",".",".",".",".",".",".",".",".",".",".",".","."]],[[".",".",".",".",12,".",".",".",".",".",".",".",".","."],[".",".",".",12,".",15,15,"b",17,15,"b",17,15,12],[14,"b",16,".",".",".",".",".",".",".",".",".",".","."],[".",".",".",".",".",".",".",".",".",".",".",".",".","."],[".",".",".",".",".",".",".",".",".",".",".",".",".","."],[".",".",".",".",".",".",".",".",".",".",".",".",".","."]],[[15,"b",17,15,"b",17,"r",15,12,15,12,".",15,12,".",".",".",".",".",".",".",12,".",".",".",".",".",".",".",".",".",".",".",".","."],[".",".",".",".",".",".",".",".",".",".",".",12,".",".",12,12,".",".",".",".",12,".",15,12,".",".",".",".",".",".",".",".",".",".","."],[".",".",".",".",".",".",".",".",".",".",".",".",".",".",".",".",14,14,"b",16,".",".",".",".",14,14,12,".",12,14,"b",16,"r",14,12],[".",".",".",".",".",".",".",".",".",".",".",".",".",".",".",".",".",".",".",".",".",".",".",".",".",".",".",14,".",".",".",".",".",".","."],[".",".",".",".",".",".",".",".",".",".",".",".",".",".",".",".",".",".",".",".",".",".",".",".",".",".",".",".",".",".",".",".",".",".","."],[".",".",".",".",".",".",".",".",".",".",".",".",".",".",".",".",".",".",".",".",".",".",".",".",".",".",".",".",".",".",".",".",".",".","."]],[[".",".",".",".",".",".",".",".",".","_",".",".",".",".",".",".",".",".",".",".",".",".",".",".",".",".",".",".","."],[".",".",".",".",".",".",".",".",".","_",".",".",".",".",".",".",".",".",".",".",".",".",".",".",".",".",".",".","."],[14,"b",16,12,14,12,".",12,".","_",".",".",".",".",".",".",".",".",".",".",".",".",".",".",12,".",".",".","."],[".",".",".",".",".",".",14,".",14,"_",14,12,".",12,".",".",".",".",".",".",".",12,12,14,".",14,14,12,14],[".",".",".",".",".",".",".",".",".","_",".",".",14,".",12,10,12,".",12,"/",14,".",".",".",".",".",".",".","."],[".",".",".",".",".",".",".",".",".","_",".",".",".",".",".",".",".",12,".",".",".",".",".",".",".",".",".",".","."]]],"numberofstrings":6,"notes":["E","B","G","D","A","E","B"],"capo":0,"stringnotes":["E4","B3","G3","D3","A2","E2"],"comments":["Stave 1:","Stave 2:","Stave 3:","Stave 4:","Stave 5:","Stave 6:"],"timing":[["W","W","W","W","W","W","W","W","W",null,"W","W",null,"W","W",null,"W","W",null,"W","W"],["W",null,"W",null,"W","W","W","W","W","W","W","W","W","W","W","W","W","W","W","W","W","W"],["W",null,"W","W",null,"W","W","W","W","W","W","W",null,"W","W",null,"W",null,"W","W","W",null,"W",null,"W","W","W","W","W","W","W",null,"W","W","W"],["W",null,"W","W","W","W","W",null,"W","W","W","W","W","W","W",null,"W","W",null,"W",null,"W","W","W","W","W","W","W","W"],["W",null,"W","W",null,"W",null,"W","W","W","W","W","W","W","W","W","W","W",null,"W","W","W","W","W","W","W","W","W","W","W",null,"W","W","W","W"],["W",null,"W","W","W","W","W","W","W","W","W","W","W","W","W","W","W","W","W",null,"W","W","W","W","W","W","W","W","W"]],"timingvisible":false,"tabcounter":20,"stave":0,"totalstaves":6,"instrument":"6guitar","selectedtuning":"6_standard","version":"13"}

Member for

7 years 6 months
Submitted by LJN62 on Mon, 2020-10-12 15:51