Sound will begin in 5 seconds

Mercy Mercy Mercy Melody

Chords
01234567891011121314151617181920212223
E
B
G
D
A
E
B
0 1 2 3 4 5 6 7 8 9 10 11 12 13 14 15 16 17 18 19 20 21 22 23
Song Science #1: How Pros Use 6 Chords to Write Hit Songs
(/) Slide Up  (\) Slide Down  (h) Hammer On  (p) Pull Off  (b) Bend (r) Release (v) Vibrato

Stave 1:

E|--8-----8-----------------------------------
B|--8h10--8-----------------------------------
G|-----------8--9--5--7b9r7--5-----5----------
D|------------------------------7-----5h7--5--
A|--------------------------------------------
E|--------------------------------------------

Stave 2:

E|----------------------------------|--------------------------------------
B|----------10--10--11--11--10--10--|----------10--10--11--11--10--10------
G|--9---9---10--10--12--12--10--10--|--9---9---10--10--12--12--10--10--9---
D|--10--10--------------------------|--10--10--------------------------10--
A|----------------------------------|--------------------------------------
E|----------------------------------|--------------------------------------

Stave 3:

E|--------------------------------------17-----------------------------------
B|------------------------15b17--15b17------15b17--15------------------------
G|--------------------12-----------------------------------------------------
D|--------------------12-----------------------------------------------------
A|--------7--7--8--8--10-------------------------------------7--7--8--8--10--
E|--8--8-----------------------------------------------8--8------------------

Stave 4:

E|---------------------------------------8-----8--8-----8--8-----
B|------------------------------------8--8h10--8--8h10--8--8h10--
G|----------5--5h7--7--5--7--9--9--9-----------------------------
D|--5--5h7-------------------------------------------------------
A|---------------------------------------------------------------
E|---------------------------------------------------------------

http://www.guitartabcreator.com
Guitar Tab Creator is intended to store guitar tab created through the tool. It currently does not support in-line text editing. Any text you place in here will be lost. If you need to comment on your tab, please use the "Tab Notes" section located below.