Mary Jane's Last Dance Solo

Chords

01234567891011121314151617181920212223
E
B
G
D
A
E
B
0 1 2 3 4 5 6 7 8 9 10 11 12 13 14 15 16 17 18 19 20 21 22 23
(/) Slide Up  (\) Slide Down  (h) Hammer On  (p) Pull Off  (b) Bend (r) Release (v) Vibrato

Stave 1:

E|------------------------------------------
B|--7-8-7--------5--7-8--7-8-7--------5-----
G|--7-8-7--5-----5--7-8--7-8-7--5-----5-----
D|------------7--------------------7-----7--
A|------------------------------------------
E|------------------------------------------

Stave 2:

E|-----5--5--5-------0--0--0--0--0--0-0------0--0---0---0---0------0---0---0---
B|-----5--5--5--5/8--8--8--8--8--8--8h10-----8--10--10--12--10-----10--10--10--
G|-----------------------------------------------------------------------------
D|-----------------------------------------------------------------------------
A|-----------------------------------------------------------------------------
E|-----------------------------------------------------------------------------

Stave 3:

E|--0---0---0---0---0---0------0--0--0--0--0--0--0--0--0--0--0--------
B|--10--10--10--10--10--10-----10\5--5--5--3--5--3--1--3--1--0--------
G|--------------------------------------------------------------0--2--
D|--------------------------------------------------------------------
A|--------------------------------------------------------------------
E|--------------------------------------------------------------------

							http://www.guitartabcreator.com
Instruments
{"strings":[[[".",".",".",".",".",".",".",".",".",".",".",".",".",".",".",".",".",".",".","."],[7,"b",8,"r",7,".",".",5,7,"b",8,7,"b",8,"r",7,".",".",5,"."],[7,"b",8,"r",7,5,".",5,7,"b",8,7,"b",8,"r",7,5,".",5,"."],[".",".",".",".",".",".",7,".",".",".",".",".",".",".",".",".",".",7,".",7],[".",".",".",".",".",".",".",".",".",".",".",".",".",".",".",".",".",".",".","."],[".",".",".",".",".",".",".",".",".",".",".",".",".",".",".",".",".",".",".","."]],[[".",5,5,5,".",".",".",0,0,0,0,0,0,".",0,".",0,0,0,0,0,".",0,0,0],[".",5,5,5,5,"/",8,8,8,8,8,8,8,"h",10,".",8,10,10,12,10,".",10,10,10],[".",".",".",".",".",".",".",".",".",".",".",".",".",".",".",".",".",".",".",".",".",".",".",".","."],[".",".",".",".",".",".",".",".",".",".",".",".",".",".",".",".",".",".",".",".",".",".",".",".","."],[".",".",".",".",".",".",".",".",".",".",".",".",".",".",".",".",".",".",".",".",".",".",".",".","."],[".",".",".",".",".",".",".",".",".",".",".",".",".",".",".",".",".",".",".",".",".",".",".",".","."]],[[0,0,0,0,0,0,".",0,".",0,0,0,0,0,0,0,0,0,0,".","."],[10,10,10,10,10,10,".",10,"\\",5,5,5,3,5,3,1,3,1,0,".","."],[".",".",".",".",".",".",".",".",".",".",".",".",".",".",".",".",".",".",".",0,2],[".",".",".",".",".",".",".",".",".",".",".",".",".",".",".",".",".",".",".",".","."],[".",".",".",".",".",".",".",".",".",".",".",".",".",".",".",".",".",".",".",".","."],[".",".",".",".",".",".",".",".",".",".",".",".",".",".",".",".",".",".",".",".","."]]],"numberofstrings":6,"notes":["E","B","G","D","A","E","B"],"capo":0,"stringnotes":["E4","B3","G3","D3","A2","E2"],"comments":["Stave 1:","Stave 2:","Stave 3:","Stave 4:"],"timing":[[null,"W",null,"W",null,"W","W","W","W","W","W","W",null,"W","W","W","W","W","W","W","W"],[null,"W","W","W","W","W","W","W","W","W","W","W","W","W",null,"W","W","W","W","W","W","W",null,"W","W","W"],[null,"W","W","W","W","W","W",null,"W",null,"W","W","W","W","W","W","W","W","W","W","W","W"],[]],"timingvisible":false,"tabcounter":21,"stave":2,"totalstaves":3,"instrument":"6guitar","selectedtuning":"6_standard","version":"13"}

Member for

7 years 8 months
Submitted by LJN62 on Tue, 2020-12-01 15:56