With A Little Help From My Friends Riffs

Chords

01234567891011121314151617181920212223
E
B
G
D
A
E
B
0 1 2 3 4 5 6 7 8 9 10 11 12 13 14 15 16 17 18 19 20 21 22 23
(/) Slide Up  (\) Slide Down  (h) Hammer On  (p) Pull Off  (b) Bend (r) Release (v) Vibrato

Stave 1:

E|--0--0-----0--------0-----0--
B|--9-----7--------5--------4--
G|--9-----8-----8--6-----6--4--
D|-----------------------------
A|-----------------------------
E|-----------------------------

Stave 2:

E|--7--7---------------
B|--9--7--10--9----9---
G|--------11--9--9h10--
D|---------------------
A|---------------------
E|---------------------

							http://www.guitartabcreator.com
genre
Instruments
{"strings":[[[0,0,".",0,".",".",0,".",0],[9,".",7,".",".",5,".",".",4],[9,".",8,".",8,6,".",6,4],[".",".",".",".",".",".",".",".","."],[".",".",".",".",".",".",".",".","."],[".",".",".",".",".",".",".",".","."]],[[7,7,".",".",".",".","."],[9,7,10,9,".",".",9],[".",".",11,9,9,"h",10],[".",".",".",".",".",".","."],[".",".",".",".",".",".","."],[".",".",".",".",".",".","."]]],"numberofstrings":6,"notes":["E","B","G","D","A","E","B"],"capo":0,"stringnotes":["E4","B3","G3","D3","A2","E2"],"comments":["Stave 1:","Stave 2:","Stave 3:"],"timing":[["W","W","W","W","W","W","W","W","W"],["W","W","W","W","W","W","W"],[]],"timingvisible":false,"tabcounter":0,"totalstaves":2,"instrument":"6guitar","selectedtuning":"6_standard","version":"13"}

Member for

7 years 6 months
Submitted by LJN62 on Wed, 2020-09-02 19:55