How Long Solo

Chords

01234567891011121314151617181920212223
E
B
G
D
A
E
B
0 1 2 3 4 5 6 7 8 9 10 11 12 13 14 15 16 17 18 19 20 21 22 23
(/) Slide Up  (\) Slide Down  (h) Hammer On  (p) Pull Off  (b) Bend (r) Release (v) Vibrato

Stave 1:

E|--------------------------------------
B|----------------6---------------------
G|--8--5-----7b8-----7b8r7--5-----5-----
D|--------5--------------------8-----5--
A|--------------------------------------
E|--------------------------------------

Stave 2:

E|----------------
B|-----------7/8--
G|--------5--7-8--
D|--5--8----------
A|----------------
E|----------------

							http://www.guitartabcreator.com
genre
Instruments
{"strings":[[[".",".",".",".",".",".",".",".",".",".",".",".",".",".",".","."],[".",".",".",".",".",".",6,".",".",".",".",".",".",".",".","."],[8,5,".",7,"b",8,".",7,"b",8,"r",7,5,".",5,"."],[".",".",5,".",".",".",".",".",".",".",".",".",".",8,".",5],[".",".",".",".",".",".",".",".",".",".",".",".",".",".",".","."],[".",".",".",".",".",".",".",".",".",".",".",".",".",".",".","."]],[[".",".",".",".",".","."],[".",".",".",7,"/",8],[".",".",5,7,".",8],[5,8,".",".",".","."],[".",".",".",".",".","."],[".",".",".",".",".","."]]],"numberofstrings":6,"notes":["E","B","G","D","A","E","B"],"capo":0,"stringnotes":["E4","B3","G3","D3","A2","E2"],"comments":["Stave 1:","Stave 2:"],"timing":[["W","W","W","W",null,"W","W","W",null,"W",null,"W","W","W","W","W"],["W","W","W","W",null,"W"]],"timingvisible":false,"tabcounter":5,"stave":1,"totalstaves":2,"instrument":"6guitar","selectedtuning":"6_standard","version":"13"}

Member for

7 years 8 months
Submitted by LJN62 on Sun, 2020-11-08 17:51