Homeward Strut

Chords

01234567891011121314151617181920212223
E
B
G
D
A
E
B
0 1 2 3 4 5 6 7 8 9 10 11 12 13 14 15 16 17 18 19 20 21 22 23
(/) Slide Up  (\) Slide Down  (h) Hammer On  (p) Pull Off  (b) Bend (r) Release (v) Vibrato

Stave 1:

E|--------------------|-----------------------------|-----------------------|--7--
B|--------------------|-----------------------------|-----------------------|--7--
G|--------------------|-----------------------------|-----------------------|--7--
D|-----------5--6-----|-----------------------------|-----------------------|--6--
A|-----------------7--|--5--7--5-----------5--6-----|-----------5--7--------|--7--
E|--0--6--7-----------|-----------0--6--7--------7--|--0--6--7--------3--0--|--x--

Stave 2:

E|---------------------------------|--------------------------
B|---------------------------------|--------------------------
G|-----9--9--7-----7--7------------|--------------------------
D|--9-----------9--------9p7\5--7--|-----5--5-----------------
A|---------------------------------|--7--------7-----5--7--7--
E|---------------------------------|--------------7-----------

Stave 3:

E|-------------------------------|-------------------------------------------------------
B|-------------------------------|-------------------------------------------------------
G|-----7--7h9--7h9--9p7-----7h9--|-----7--7h9--7h9--9p7-----7h9--------------------------
D|--9--------------------9-------|--9--------------------9----------5--5-----------------
A|-------------------------------|-------------------------------7--------7-----5--7--7--
E|-------------------------------|-------------------------------------------7-----------

Stave 4:

E|-----------------------------x--
B|-----------------------------8--
G|-----------------------------7--
D|--5--7-----------------------5--
A|--------5--7-----------------7--
E|--------------6--7--0--0-----0--

							http://www.guitartabcreator.com
genre
Instruments
{"strings":[[[".",".",".",".",".",".","|",".",".",".",".",".",".",".",".",".","|",".",".",".",".",".",".",".","|",7],[".",".",".",".",".",".","|",".",".",".",".",".",".",".",".",".","|",".",".",".",".",".",".",".","|",7],[".",".",".",".",".",".","|",".",".",".",".",".",".",".",".",".","|",".",".",".",".",".",".",".","|",7],[".",".",".",5,6,".","|",".",".",".",".",".",".",".",".",".","|",".",".",".",".",".",".",".","|",6],[".",".",".",".",".",7,"|",5,7,5,".",".",".",5,6,".","|",".",".",".",5,7,".",".","|",7],[0,6,7,".",".",".","|",".",".",".",0,6,7,".",".",7,"|",0,6,7,".",".",3,0,"|","x0"]],[[".",".",".",".",".",".",".",".",".",".",".",".",".","|",".",".",".",".",".",".",".","."],[".",".",".",".",".",".",".",".",".",".",".",".",".","|",".",".",".",".",".",".",".","."],[".",9,9,7,".",7,7,".",".",".",".",".",".","|",".",".",".",".",".",".",".","."],[9,".",".",".",9,".",".",9,"p",7,"\\",5,7,"|",".",5,5,".",".",".",".","."],[".",".",".",".",".",".",".",".",".",".",".",".",".","|",7,".",".",7,".",5,7,7],[".",".",".",".",".",".",".",".",".",".",".",".",".","|",".",".",".",".",7,".",".","."]],[[".",".",".",".",".",".",".",".",".",".",".",".",".",".",".","|",".",".",".",".",".",".",".",".",".",".",".",".",".",".",".",".",".",".",".",".",".",".","."],[".",".",".",".",".",".",".",".",".",".",".",".",".",".",".","|",".",".",".",".",".",".",".",".",".",".",".",".",".",".",".",".",".",".",".",".",".",".","."],[".",7,7,"h",9,7,"h",9,9,"p",7,".",7,"h",9,"|",".",7,7,"h",9,7,"h",9,9,"p",7,".",7,"h",9,".",".",".",".",".",".",".","."],[9,".",".",".",".",".",".",".",".",".",".",9,".",".",".","|",9,".",".",".",".",".",".",".",".",".",".",9,".",".",".",".",5,5,".",".",".",".","."],[".",".",".",".",".",".",".",".",".",".",".",".",".",".",".","|",".",".",".",".",".",".",".",".",".",".",".",".",".",".",".",7,".",".",7,".",5,7,7],[".",".",".",".",".",".",".",".",".",".",".",".",".",".",".","|",".",".",".",".",".",".",".",".",".",".",".",".",".",".",".",".",".",".",".",7,".",".","."]],[[".",".",".",".",".",".",".",".","_","x0"],[".",".",".",".",".",".",".",".","_",8],[".",".",".",".",".",".",".",".","_",7],[5,7,".",".",".",".",".",".","_",5],[".",".",5,7,".",".",".",".","_",7],[".",".",".",".",6,7,0,0,"_",0]]],"numberofstrings":6,"notes":["E","B","G","D","A","E","B"],"capo":0,"stringnotes":["E4","B3","G3","D3","A2","E2"],"comments":["Stave 1:","Stave 2:","Stave 3:","Stave 4:"],"timing":[["W","W","W","W","W","W",null,"W","W","W","W","W","W","W","W","W",null,"W","W","W","W","W","W","W",null,"W"],["W","W","W","W","W","W","W","W",null,"W",null,"W","W","W","W","W","W","W","W","W","W","W","W"],["W","W","W",null,"W","W",null,"W","W",null,"W","W","W",null,"W",null,"W","W","W",null,"W","W",null,"W","W",null,"W","W","W",null,"W","W","W","W","W","W","W","W","W","W"],["W","W","W","W","W","W","W","W",null,"W"]],"timingvisible":false,"tabcounter":9,"stave":3,"totalstaves":4,"instrument":"6guitar","selectedtuning":"6_standard","version":"13"}

Member for

7 years 6 months
Submitted by LJN62 on Tue, 2020-09-01 19:34