Heartbreak Hotel Solo

01234567891011121314151617181920212223
E
B
G
D
A
E
B
0 1 2 3 4 5 6 7 8 9 10 11 12 13 14 15 16 17 18 19 20 21 22 23
(/) Slide Up  (\) Slide Down  (h) Hammer On  (p) Pull Off  (b) Bend (r) Release (v) Vibrato

Stave 1:

E|--12--12--12--12------10--12-----12--12--12--12------10\
B|--12--12--12--12--12-------------12--12--12--12--12-----
G|--------------------------------------------------------
D|--------------------------------------------------------
A|--------------------------------------------------------
E|--------------------------------------------------------

Stave 2:

E|--12--12--12--12------10--12-----12--12--12-----12--12--12-----12--12--12-----12--12--12--
B|--12--12--12--12--12----------------------------------------------------------------------
G|------------------------------------------------------------------------------------------
D|------------------------------------------------------------------------------------------
A|------------------------------------------------------------------------------------------
E|------------------------------------------------------------------------------------------

							http://www.guitartabcreator.com
Chords

genre
Instruments
{"strings":[[[12,12,12,12,".",10,12,"_",12,12,12,12,".",10,"\\"],[12,12,12,12,12,".",".","_",12,12,12,12,12,".","."],[".",".",".",".",".",".",".","_",".",".",".",".",".",".","."],[".",".",".",".",".",".",".","_",".",".",".",".",".",".","."],[".",".",".",".",".",".",".","_",".",".",".",".",".",".","."],[".",".",".",".",".",".",".","_",".",".",".",".",".",".","."]],[[12,12,12,12,".",10,12,"_",12,12,12,"_",12,12,12,"_",12,12,12,"_",12,12,12],[12,12,12,12,12,".",".","_",".",".",".","_",".",".",".","_",".",".",".","_",".",".","."],[".",".",".",".",".",".",".","_",".",".",".","_",".",".",".","_",".",".",".","_",".",".","."],[".",".",".",".",".",".",".","_",".",".",".","_",".",".",".","_",".",".",".","_",".",".","."],[".",".",".",".",".",".",".","_",".",".",".","_",".",".",".","_",".",".",".","_",".",".","."],[".",".",".",".",".",".",".","_",".",".",".","_",".",".",".","_",".",".",".","_",".",".","."]]],"numberofstrings":6,"notes":["E","B","G","D","A","E","B"],"capo":0,"stringnotes":["E4","B3","G3","D3","A2","E2"],"comments":["Stave 1:","Stave 2:"],"timing":[["W","W","W","W","W","W","W","W","W","W","W","W","W","W","W",null,"W"],["W","W","W","W","W","W","W","W","W","W","W","W","W","W","W","W","W","W","W","W","W","W","W"]],"timingvisible":false,"tabcounter":23,"stave":1,"totalstaves":2,"instrument":"6guitar","selectedtuning":"6_standard","version":"13"}

Member for

8 years 2 months
Submitted by LJN62 on Thu, 2020-11-19 12:27