Get Back Solo Parts

Chords

01234567891011121314151617181920212223
E
B
G
D
A
E
B
0 1 2 3 4 5 6 7 8 9 10 11 12 13 14 15 16 17 18 19 20 21 22 23
(/) Slide Up  (\) Slide Down  (h) Hammer On  (p) Pull Off  (b) Bend (r) Release (v) Vibrato

Stave 1:

E|-------------------12-----------------|----------------9--9--9--9--|--
B|--------10--12b14------14r12--10------|----------------8--8--8--8--|--
G|--9/11----------------------------11--|----------------9--9--9--9--|--
D|--------------------------------------|-------------7--------------|--
A|--------------------------------------|-------7--9-----------------|--
E|--------------------------------------|--7/9-----------------------|--

Stave 2:

E|-----------------------------------12---------------------|---------------------------
B|--------10--10--10--10--12--12b14------14r12--10------10--|---------------------------
G|--9/11--------------------------------------------11------|-------------7--5-----5b6--
D|----------------------------------------------------------|-------7--9--------7-------
A|----------------------------------------------------------|--7/9----------------------
E|----------------------------------------------------------|---------------------------

Stave 3:

E|------------------------------------------------12------------------------
B|------10------10------10--10--12--12b14--12b14------12b14r12--10------10--
G|--11------11------11----------------------------------------------11------
D|--------------------------------------------------------------------------
A|--------------------------------------------------------------------------
E|--------------------------------------------------------------------------

Stave 4:

E|---------------------------------------------------
B|---------------------------8-----------5-----------
G|-------------7--5-----5b6-----7-----5-----5-----5--
D|-------7--9--------7-------------7-----------7-----
A|--7/9----------------------------------------------
E|---------------------------------------------------

Stave 5:

E|-----------------------------------------------------12---------------------
B|--------10--10--10--10--10--10--12b14--12b14--12b14------14r12--10------10--
G|--9/11--------------------------------------------------------------11------
D|----------------------------------------------------------------------------
A|----------------------------------------------------------------------------
E|----------------------------------------------------------------------------

Stave 6:

E|---------------------------------------------------
B|---------------------------8-----------5-----------
G|-------------7--5-----5b6-----7-----5-----5-----5--
D|-------7--9--------7-------------7-----------7-----
A|--7/9----------------------------------------------
E|---------------------------------------------------

Stave 7:

E|------------------------------------------------------
B|------10--10--10--10--12--12b14--12b14--12b14r12------
G|--11----------------------------------------------11--
D|------------------------------------------------------
A|------------------------------------------------------
E|------------------------------------------------------

Stave 8:

E|---------------------------------------------------------------------------------------------
B|--12b14r12--10--12b14r12--10--12b14r12--10--12b14--10--12b14--10------10--12b14--10------10--
G|------------------------------------------------------------------11-----------------11------
D|---------------------------------------------------------------------------------------------
A|---------------------------------------------------------------------------------------------
E|---------------------------------------------------------------------------------------------

							http://www.guitartabcreator.com
genre
Instruments
{"strings":[[[".",".",".",".",".",".",".",12,".",".",".",".",".","|",".",".",".",".",".",".",9,9,9,9,"|"],[".",".",".",10,12,"b",14,".",14,"r",12,10,".","|",".",".",".",".",".",".",8,8,8,8,"|"],[9,"/",11,".",".",".",".",".",".",".",".",".",11,"|",".",".",".",".",".",".",9,9,9,9,"|"],[".",".",".",".",".",".",".",".",".",".",".",".",".","|",".",".",".",".",".",7,".",".",".",".","|"],[".",".",".",".",".",".",".",".",".",".",".",".",".","|",".",".",".",7,9,".",".",".",".",".","|"],[".",".",".",".",".",".",".",".",".",".",".",".",".","|",7,"/",9,".",".",".",".",".",".",".","|"]],[[".",".",".",".",".",".",".",".",".",".",".",12,".",".",".",".",".",".","|",".",".",".",".",".",".",".",".",".",".","."],[".",".",".",10,10,10,10,12,12,"b",14,".",14,"r",12,10,".",10,"|",".",".",".",".",".",".",".",".",".",".","."],[9,"/",11,".",".",".",".",".",".",".",".",".",".",".",".",".",11,".","|",".",".",".",".",".",7,5,".",5,"b",6],[".",".",".",".",".",".",".",".",".",".",".",".",".",".",".",".",".",".","|",".",".",".",7,9,".",".",7,".",".","."],[".",".",".",".",".",".",".",".",".",".",".",".",".",".",".",".",".",".","|",7,"/",9,".",".",".",".",".",".",".","."],[".",".",".",".",".",".",".",".",".",".",".",".",".",".",".",".",".",".","|",".",".",".",".",".",".",".",".",".",".","."]],[[".",".",".",".",".",".",".",".",".",".",".",".",".",".",12,".",".",".",".",".",".",".","."],[".",10,".",10,".",10,10,12,12,"b",14,12,"b",14,".",12,"b",14,"r",12,10,".",10],[11,".",11,".",11,".",".",".",".",".",".",".",".",".",".",".",".",".",".",".",".",11,"."],[".",".",".",".",".",".",".",".",".",".",".",".",".",".",".",".",".",".",".",".",".",".","."],[".",".",".",".",".",".",".",".",".",".",".",".",".",".",".",".",".",".",".",".",".",".","."],[".",".",".",".",".",".",".",".",".",".",".",".",".",".",".",".",".",".",".",".",".",".","."]],[[".",".",".",".",".",".",".",".",".",".",".",".",".",".",".",".",".",".","."],[".",".",".",".",".",".",".",".",".",".",".",8,".",".",".",5,".",".","."],[".",".",".",".",".",7,5,".",5,"b",6,".",7,".",5,".",5,".",5],[".",".",".",7,9,".",".",7,".",".",".",".",".",7,".",".",".",7,"."],[7,"/",9,".",".",".",".",".",".",".",".",".",".",".",".",".",".",".","."],[".",".",".",".",".",".",".",".",".",".",".",".",".",".",".",".",".",".","."]],[[".",".",".",".",".",".",".",".",".",".",".",".",".",".",".",".",".",".",12,".",".",".",".",".","."],[".",".",".",10,10,10,10,10,10,12,"b",14,12,"b",14,12,"b",14,".",14,"r",12,10,".",10],[9,"/",11,".",".",".",".",".",".",".",".",".",".",".",".",".",".",".",".",".",".",".",".",11,"."],[".",".",".",".",".",".",".",".",".",".",".",".",".",".",".",".",".",".",".",".",".",".",".",".","."],[".",".",".",".",".",".",".",".",".",".",".",".",".",".",".",".",".",".",".",".",".",".",".",".","."],[".",".",".",".",".",".",".",".",".",".",".",".",".",".",".",".",".",".",".",".",".",".",".",".","."]],[[".",".",".",".",".",".",".",".",".",".",".",".",".",".",".",".",".",".","."],[".",".",".",".",".",".",".",".",".",".",".",8,".",".",".",5,".",".","."],[".",".",".",".",".",7,5,".",5,"b",6,".",7,".",5,".",5,".",5],[".",".",".",7,9,".",".",7,".",".",".",".",".",7,".",".",".",7,"."],[7,"/",9,".",".",".",".",".",".",".",".",".",".",".",".",".",".",".","."],[".",".",".",".",".",".",".",".",".",".",".",".",".",".",".",".",".",".","."]],[[".",".",".",".",".",".",".",".",".",".",".",".",".",".",".",".",".","."],[".",10,10,10,10,12,12,"b",14,12,"b",14,12,"b",14,"r",12,"."],[11,".",".",".",".",".",".",".",".",".",".",".",".",".",".",".",".",11],[".",".",".",".",".",".",".",".",".",".",".",".",".",".",".",".",".","."],[".",".",".",".",".",".",".",".",".",".",".",".",".",".",".",".",".","."],[".",".",".",".",".",".",".",".",".",".",".",".",".",".",".",".",".","."]],[[".",".",".",".",".",".",".",".",".",".",".",".",".",".",".",".",".",".",".",".",".",".",".",".",".",".",".",".",".",".",".",".",".","."],[12,"b",14,"r",12,10,12,"b",14,"r",12,10,12,"b",14,"r",12,10,12,"b",14,10,12,"b",14,10,".",10,12,"b",14,10,".",10],[".",".",".",".",".",".",".",".",".",".",".",".",".",".",".",".",".",".",".",".",".",".",".",".",".",".",11,".",".",".",".",".",11,"."],[".",".",".",".",".",".",".",".",".",".",".",".",".",".",".",".",".",".",".",".",".",".",".",".",".",".",".",".",".",".",".",".",".","."],[".",".",".",".",".",".",".",".",".",".",".",".",".",".",".",".",".",".",".",".",".",".",".",".",".",".",".",".",".",".",".",".",".","."],[".",".",".",".",".",".",".",".",".",".",".",".",".",".",".",".",".",".",".",".",".",".",".",".",".",".",".",".",".",".",".",".",".","."]]],"numberofstrings":6,"notes":["E","B","G","D","A","E","B"],"capo":0,"stringnotes":["E4","B3","G3","D3","A2","E2"],"comments":["Stave 1:","Stave 2:","Stave 3:","Stave 4:","Stave 5:","Stave 6:","Stave 7:","Stave 8:"],"timing":[["W",null,"W","W","W",null,"W","W","W",null,"W","W","W",null,"W",null,"W","W","W","W","W","W","W","W","W"],["W",null,"W","W","W","W","W","W","W","W","W","W","W",null,"W","W","W","W",null,"W",null,"W","W","W","W","W","W","W",null,"W"],["W","W","W","W","W","W","W","W","W","W","W","W",null,"W","W","W",null,"W",null,"W","W","W","W"],["W",null,"W","W","W","W","W","W","W",null,"W","W","W","W","W","W","W","W","W",null,"W","W","W","W","W"],["W",null,"W","W","W","W","W","W","W","W",null,"W","W",null,"W","W","W","W","W","W",null,"W","W","W","W"],["W",null,"W","W","W","W","W","W","W",null,"W","W","W","W","W","W","W","W","W"],["W","W","W","W","W","W","W",null,"W","W",null,"W","W","W","W","W","W","W","W",null,"W",null,"W","W","W",null,"W",null,"W","W","W",null,"W",null,"W"],["W",null,"W",null,"W","W","W",null,"W",null,"W","W","W",null,"W",null,"W","W","W",null,"W","W","W",null,"W","W","W","W","W",null,"W","W","W","W"]],"timingvisible":false,"tabcounter":34,"stave":7,"totalstaves":8,"instrument":"6guitar","selectedtuning":"6_standard","version":"13"}

Member for

7 years 6 months
Submitted by LJN62 on Mon, 2020-09-28 15:14