Don't Stop Solo Fleetwood Mac

Chords

01234567891011121314151617181920212223
E
B
G
D
A
E
B
0 1 2 3 4 5 6 7 8 9 10 11 12 13 14 15 16 17 18 19 20 21 22 23
(/) Slide Up  (\) Slide Down  (h) Hammer On  (p) Pull Off  (b) Bend (r) Release (v) Vibrato

Stave 1:

E|---------------------------------------|----------------------------------------
B|---------------------------------------|------------------------------------17--
G|--14b15r12--14--14-----14--12----------|------12--14--14b15r14--14--12----------
D|-------------------------------14--14--|--14----------------------------14------
A|---------------------------------------|----------------------------------------
E|---------------------------------------|----------------------------------------

Stave 2:

E|---------------------------------15------17--15----------
B|--15--17--17--17-----17--15--17------17----------17--17--
G|---------------------------------------------------------
D|---------------------------------------------------------
A|---------------------------------------------------------
E|---------------------------------------------------------

Stave 3:

E|------15--17b19--19--19--19--19--19--19--19--19r15--17--17--17b19r15--17--17-----17--15--15------
B|--17-----------------------------------------------------------------------------------------17--
G|-------------------------------------------------------------------------------------------------
D|-------------------------------------------------------------------------------------------------
A|-------------------------------------------------------------------------------------------------
E|-------------------------------------------------------------------------------------------------

							http://www.guitartabcreator.com
genre
Instruments
{"strings":[[[".",".",".",".",".",".",".","_",".",".",".",".","|",".",".",".",".",".",".",".",".",".",".",".","."],[".",".",".",".",".",".",".","_",".",".",".",".","|",".",".",".",".",".",".",".",".",".",".",".",17],[14,"b",15,"r",12,14,14,"_",14,12,".",".","|",".",12,14,14,"b",15,"r",14,14,12,".","."],[".",".",".",".",".",".",".","_",".",".",14,14,"|",14,".",".",".",".",".",".",".",".",".",14,"."],[".",".",".",".",".",".",".","_",".",".",".",".","|",".",".",".",".",".",".",".",".",".",".",".","."],[".",".",".",".",".",".",".","_",".",".",".",".","|",".",".",".",".",".",".",".",".",".",".",".","."]],[[".",".",".",".","_",".",".",".",15,".",17,15,".","."],[15,17,17,17,"_",17,15,17,".",17,".",".",17,17],[".",".",".",".","_",".",".",".",".",".",".",".",".","."],[".",".",".",".","_",".",".",".",".",".",".",".",".","."],[".",".",".",".","_",".",".",".",".",".",".",".",".","."],[".",".",".",".","_",".",".",".",".",".",".",".",".","."]],[[".",15,17,"b",19,19,19,19,19,19,19,19,19,"r",15,17,17,17,"b",19,"r",15,17,17,"_",17,15,15,"."],[17,".",".",".",".",".",".",".",".",".",".",".",".",".",".",".",".",".",".",".",".",".",".",".","_",".",".",".",17],[".",".",".",".",".",".",".",".",".",".",".",".",".",".",".",".",".",".",".",".",".",".",".",".","_",".",".",".","."],[".",".",".",".",".",".",".",".",".",".",".",".",".",".",".",".",".",".",".",".",".",".",".",".","_",".",".",".","."],[".",".",".",".",".",".",".",".",".",".",".",".",".",".",".",".",".",".",".",".",".",".",".",".","_",".",".",".","."],[".",".",".",".",".",".",".",".",".",".",".",".",".",".",".",".",".",".",".",".",".",".",".",".","_",".",".",".","."]]],"numberofstrings":6,"notes":["E","B","G","D","A","E","B"],"capo":0,"stringnotes":["E4","B3","G3","D3","A2","E2"],"comments":["Stave 1:","Stave 2:","Stave 3:"],"timing":[["W",null,"W",null,"W","W","W",null,"W","W","W","W",null,"W","W","W","W","W","W",null,"W","W","W","W","W"],["W","W","W","W",null,"W","W","W","W","W","W","W","W","W","W","W"],["W","W","W",null,"W","W","W","W","W","W","W","W","W",null,"W","W","W","W",null,"W",null,"W","W","W",null,"W","W","W","W"]],"timingvisible":false,"tabcounter":29,"stave":2,"totalstaves":3,"instrument":"6guitar","selectedtuning":"6_standard","version":"13"}

Member for

7 years 8 months
Submitted by LJN62 on Sun, 2020-11-08 16:07